  0
SECTION
  2
HEADER
  9
$ACADVER
  1
AC1024
  9
$ACADMAINTVER
 70
     6
  9
$DWGCODEPAGE
  3
ANSI_1252
  9
$INSBASE
 10
0.0
 20
0.0
 30
0.0
  9
$EXTMIN
 10
0.0
 20
0.0
 30
0.0
  9
$EXTMAX
 10
3000.0
 20
4500.0
 30
0.0
  9
$LIMMIN
 10
0.0
 20
0.0
  9
$LIMMAX
 10
3000.0
 20
4500.0
  9
$ORTHOMODE
 70
     0
  9
$REGENMODE
 70
     1
  9
$FILLMODE
 70
     1
  9
$QTEXTMODE
 70
     0
  9
$MIRRTEXT
 70
     1
  9
$LTSCALE
 40
1.0
  9
$ATTMODE
 70
     1
  9
$TEXTSIZE
 40
10.0
  9
$TRACEWID
 40
1.0
  9
$TEXTSTYLE
  7
Standard
  9
$CLAYER
  8
0
  9
$CELTYPE
  6
ByLayer
  9
$CECOLOR
 62
   256
  9
$CELTSCALE
 40
1.0
  9
$DISPSILH
 70
     0
  9
$DIMSCALE
 40
1.0
  9
$DIMASZ
 40
2.5
  9
$DIMEXO
 40
0.625
  9
$DIMDLI
 40
3.75
  9
$DIMRND
 40
0.0
  9
$DIMDLE
 40
0.0
  9
$DIMEXE
 40
1.25
  9
$DIMTP
 40
0.0
  9
$DIMTM
 40
0.0
  9
$DIMTXT
 40
2.5
  9
$DIMCEN
 40
2.5
  9
$DIMTSZ
 40
0.0
  9
$DIMTOL
 70
     0
  9
$DIMLIM
 70
     0
  9
$DIMTIH
 70
     0
  9
$DIMTOH
 70
     0
  9
$DIMSE1
 70
     0
  9
$DIMSE2
 70
     0
  9
$DIMTAD
 70
     1
  9
$DIMZIN
 70
     8
  9
$DIMBLK
  1

  9
$DIMASO
 70
     1
  9
$DIMSHO
 70
     1
  9
$DIMPOST
  1

  9
$DIMAPOST
  1

  9
$DIMALT
 70
     0
  9
$DIMALTD
 70
     3
  9
$DIMALTF
 40
0.0393700787
  9
$DIMLFAC
 40
1.0
  9
$DIMTOFL
 70
     1
  9
$DIMTVP
 40
0.0
  9
$DIMTIX
 70
     0
  9
$DIMSOXD
 70
     0
  9
$DIMSAH
 70
     0
  9
$DIMBLK1
  1

  9
$DIMBLK2
  1

  9
$DIMSTYLE
  2
ISO-25
  9
$DIMCLRD
 70
     0
  9
$DIMCLRE
 70
     0
  9
$DIMCLRT
 70
     0
  9
$DIMTFAC
 40
1.0
  9
$DIMGAP
 40
0.625
  9
$DIMJUST
 70
     0
  9
$DIMSD1
 70
     0
  9
$DIMSD2
 70
     0
  9
$DIMTOLJ
 70
     0
  9
$DIMTZIN
 70
     8
  9
$DIMALTZ
 70
     0
  9
$DIMALTTZ
 70
     0
  9
$DIMUPT
 70
     0
  9
$DIMDEC
 70
     2
  9
$DIMTDEC
 70
     2
  9
$DIMALTU
 70
     2
  9
$DIMALTTD
 70
     3
  9
$DIMTXSTY
  7
Standard
  9
$DIMAUNIT
 70
     0
  9
$DIMADEC
 70
     0
  9
$DIMALTRND
 40
0.0
  9
$DIMAZIN
 70
     0
  9
$DIMDSEP
 70
    44
  9
$DIMATFIT
 70
     3
  9
$DIMFRAC
 70
     0
  9
$DIMLDRBLK
  1

  9
$DIMLUNIT
 70
     2
  9
$DIMLWD
 70
    -2
  9
$DIMLWE
 70
    -2
  9
$DIMTMOVE
 70
     0
  9
$DIMFXL
 40
1.0
  9
$DIMFXLON
 70
     0
  9
$DIMJOGANG
 40
0.7853981634
  9
$DIMTFILL
 70
     0
  9
$DIMTFILLCLR
 70
     0
  9
$DIMARCSYM
 70
     0
  9
$DIMLTYPE
  6

  9
$DIMLTEX1
  6

  9
$DIMLTEX2
  6

  9
$DIMTXTDIRECTION
 70
     0
  9
$LUNITS
 70
     2
  9
$LUPREC
 70
     4
  9
$SKETCHINC
 40
1.0
  9
$FILLETRAD
 40
10.0
  9
$AUNITS
 70
     0
  9
$AUPREC
 70
     0
  9
$MENU
  1
.
  9
$ELEVATION
 40
0.0
  9
$PELEVATION
 40
0.0
  9
$THICKNESS
 40
0.0
  9
$LIMCHECK
 70
     0
  9
$CHAMFERA
 40
0.0
  9
$CHAMFERB
 40
0.0
  9
$CHAMFERC
 40
0.0
  9
$CHAMFERD
 40
0.0
  9
$SKPOLY
 70
     0
  9
$TDCREATE
 40
2458066.361659942
  9
$TDUCREATE
 40
2458066.319993276
  9
$TDUPDATE
 40
2458066.36166066
  9
$TDUUPDATE
 40
2458066.319993993
  9
$TDINDWG
 40
0.0000000116
  9
$TDUSRTIMER
 40
0.0000000116
  9
$USRTIMER
 70
     1
  9
$ANGBASE
 50
0.0
  9
$ANGDIR
 70
     0
  9
$PDMODE
 70
     0
  9
$PDSIZE
 40
0.0
  9
$PLINEWID
 40
0.0
  9
$SPLFRAME
 70
     0
  9
$SPLINETYPE
 70
     6
  9
$SPLINESEGS
 70
     8
  9
$HANDSEED
  5
250
  9
$SURFTAB1
 70
     6
  9
$SURFTAB2
 70
     6
  9
$SURFTYPE
 70
     6
  9
$SURFU
 70
     6
  9
$SURFV
 70
     6
  9
$UCSBASE
  2

  9
$UCSNAME
  2

  9
$UCSORG
 10
0.0
 20
0.0
 30
0.0
  9
$UCSXDIR
 10
1.0
 20
0.0
 30
0.0
  9
$UCSYDIR
 10
0.0
 20
1.0
 30
0.0
  9
$UCSORTHOREF
  2

  9
$UCSORTHOVIEW
 70
     0
  9
$UCSORGTOP
 10
0.0
 20
0.0
 30
0.0
  9
$UCSORGBOTTOM
 10
0.0
 20
0.0
 30
0.0
  9
$UCSORGLEFT
 10
0.0
 20
0.0
 30
0.0
  9
$UCSORGRIGHT
 10
0.0
 20
0.0
 30
0.0
  9
$UCSORGFRONT
 10
0.0
 20
0.0
 30
0.0
  9
$UCSORGBACK
 10
0.0
 20
0.0
 30
0.0
  9
$PUCSBASE
  2

  9
$PUCSNAME
  2

  9
$PUCSORG
 10
0.0
 20
0.0
 30
0.0
  9
$PUCSXDIR
 10
1.0
 20
0.0
 30
0.0
  9
$PUCSYDIR
 10
0.0
 20
1.0
 30
0.0
  9
$PUCSORTHOREF
  2

  9
$PUCSORTHOVIEW
 70
     0
  9
$PUCSORGTOP
 10
0.0
 20
0.0
 30
0.0
  9
$PUCSORGBOTTOM
 10
0.0
 20
0.0
 30
0.0
  9
$PUCSORGLEFT
 10
0.0
 20
0.0
 30
0.0
  9
$PUCSORGRIGHT
 10
0.0
 20
0.0
 30
0.0
  9
$PUCSORGFRONT
 10
0.0
 20
0.0
 30
0.0
  9
$PUCSORGBACK
 10
0.0
 20
0.0
 30
0.0
  9
$USERI1
 70
     0
  9
$USERI2
 70
     0
  9
$USERI3
 70
     0
  9
$USERI4
 70
     0
  9
$USERI5
 70
     0
  9
$USERR1
 40
0.0
  9
$USERR2
 40
0.0
  9
$USERR3
 40
0.0
  9
$USERR4
 40
0.0
  9
$USERR5
 40
0.0
  9
$WORLDVIEW
 70
     1
  9
$SHADEDGE
 70
     3
  9
$SHADEDIF
 70
    70
  9
$TILEMODE
 70
     1
  9
$MAXACTVP
 70
    64
  9
$PINSBASE
 10
0.0
 20
0.0
 30
0.0
  9
$PLIMCHECK
 70
     0
  9
$PEXTMIN
 10
0.0
 20
0.0
 30
0.0
  9
$PEXTMAX
 10
3000.0
 20
4500.0
 30
0.0
  9
$PLIMMIN
 10
0.0
 20
0.0
  9
$PLIMMAX
 10
3000.0
 20
4500.0
  9
$UNITMODE
 70
     0
  9
$VISRETAIN
 70
     1
  9
$PLINEGEN
 70
     0
  9
$PSLTSCALE
 70
     1
  9
$TREEDEPTH
 70
  3020
  9
$CMLSTYLE
  2
Standard
  9
$CMLJUST
 70
     0
  9
$CMLSCALE
 40
20.0
  9
$PROXYGRAPHICS
 70
     1
  9
$MEASUREMENT
 70
     1
  9
$CELWEIGHT
370
    -1
  9
$ENDCAPS
280
     0
  9
$JOINSTYLE
280
     0
  9
$LWDISPLAY
290
     0
  9
$INSUNITS
 70
     4
  9
$HYPERLINKBASE
  1

  9
$STYLESHEET
  1

  9
$XEDIT
290
     1
  9
$CEPSNTYPE
380
     0
  9
$PSTYLEMODE
290
     1
  9
$FINGERPRINTGUID
  2
{9F49E29D-0DA4-4C56-8565-8DC099D0C1B1}
  9
$VERSIONGUID
  2
{FAEB1C32-E019-11D5-929B-00C0DF256EC4}
  9
$EXTNAMES
290
     1
  9
$PSVPSCALE
 40
0.0
  9
$OLESTARTUP
290
     0
  9
$SORTENTS
280
   127
  9
$INDEXCTL
280
     0
  9
$HIDETEXT
280
     1
  9
$XCLIPFRAME
280
     2
  9
$HALOGAP
280
     0
  9
$OBSCOLOR
 70
   257
  9
$OBSLTYPE
280
     0
  9
$INTERSECTIONDISPLAY
280
     0
  9
$INTERSECTIONCOLOR
 70
   257
  9
$DIMASSOC
280
     2
  9
$PROJECTNAME
  1

  9
$CAMERADISPLAY
290
     0
  9
$LENSLENGTH
 40
50.0
  9
$CAMERAHEIGHT
 40
0.0
  9
$STEPSPERSEC
 40
2.0
  9
$STEPSIZE
 40
6.0
  9
$3DDWFPREC
 40
2.0
  9
$PSOLWIDTH
 40
5.0
  9
$PSOLHEIGHT
 40
80.0
  9
$LOFTANG1
 40
1.5707963268
  9
$LOFTANG2
 40
1.5707963268
  9
$LOFTMAG1
 40
0.0
  9
$LOFTMAG2
 40
0.0
  9
$LOFTPARAM
 70
     7
  9
$LOFTNORMALS
280
     1
  9
$LATITUDE
 40
37.795
  9
$LONGITUDE
 40
-122.394
  9
$NORTHDIRECTION
 40
0.0
  9
$TIMEZONE
 70
 -8000
  9
$LIGHTGLYPHDISPLAY
280
     1
  9
$TILEMODELIGHTSYNCH
280
     1
  9
$CMATERIAL
347
44
  9
$SOLIDHIST
280
     1
  9
$SHOWHIST
280
     1
  9
$DWFFRAME
280
     2
  9
$DGNFRAME
280
     2
  9
$REALWORLDSCALE
290
     1
  9
$INTERFERECOLOR
 62
   256
  9
$CSHADOW
280
     0
  9
$SHADOWPLANELOCATION
 40
0.0
  0
ENDSEC
  0
SECTION
  2
CLASSES
  0
CLASS
  1
ACDBDICTIONARYWDFLT
  2
AcDbDictionaryWithDefault
  3
ObjectDBX Classes
 90
        0
 91
        4
280
     0
281
     0
  0
CLASS
  1
VISUALSTYLE
  2
AcDbVisualStyle
  3
ObjectDBX Classes
 90
     4095
 91
        4
280
     0
281
     0
  0
CLASS
  1
MATERIAL
  2
AcDbMaterial
  3
ObjectDBX Classes
 90
     1153
 91
        4
280
     0
281
     0
  0
CLASS
  1
SCALE
  2
AcDbScale
  3
ObjectDBX Classes
 90
     1153
 91
        4
280
     0
281
     0
  0
CLASS
  1
SUN
  2
AcDbSun
  3
SCENEOE
 90
     1153
 91
        4
280
     0
281
     0
  0
CLASS
  1
DICTIONARYVAR
  2
AcDbDictionaryVar
  3
ObjectDBX Classes
 90
        0
 91
        4
280
     0
281
     0
  0
ENDSEC
  0
SECTION
  2
TABLES
  0
TABLE
  2
VPORT
  5
8
330
0
100
AcDbSymbolTable
 70
     1
  0
VPORT
  5
29
330
8
100
AcDbSymbolTableRecord
100
AcDbViewportTableRecord
  2
*Active
 70
     0
 10
0.0
 20
0.0
 11
1.0
 21
1.0
 12
344.1869158879
 22
148.5
 13
0.0
 23
0.0
 14
10.0
 24
10.0
 15
10.0
 25
10.0
 16
0.0
 26
0.0
 36
1.0
 17
0.0
 27
0.0
 37
0.0
 40
297.0
 41
1.9729729729
 42
50.0
 43
0.0
 44
0.0
 50
0.0
 51
0.0
 71
     0
 72
   100
 73
     1
 74
     3
 75
     0
 76
     0
 77
     0
 78
     0
281
     0
 65
     1
110
0.0
120
0.0
130
0.0
111
1.0
121
0.0
131
0.0
112
0.0
122
1.0
132
0.0
 79
     0
146
0.0
 60
     3
 61
     5
292
     1
282
     1
141
0.0
142
0.0
 63
   250
361
69
  0
ENDTAB
  0
TABLE
  2
LTYPE
  5
5
330
0
100
AcDbSymbolTable
 70
     2
  0
LTYPE
  5
14
330
5
100
AcDbSymbolTableRecord
100
AcDbLinetypeTableRecord
  2
ByBlock
 70
     0
  3

 72
    65
 73
     0
 40
0.0
  0
LTYPE
  5
15
330
5
100
AcDbSymbolTableRecord
100
AcDbLinetypeTableRecord
  2
ByLayer
 70
     0
  3

 72
    65
 73
     0
 40
0.0
  0
LTYPE
  5
16
330
5
100
AcDbSymbolTableRecord
100
AcDbLinetypeTableRecord
  2
Continuous
 70
     0
  3
Solid line
 72
    65
 73
     0
 40
0.0
  0
LTYPE
  5
70
330
5
100
AcDbSymbolTableRecord
100
AcDbLinetypeTableRecord
  2
CENTER2
 70
     0
  3
Center (.5x) ___ _ ___ _ ___ _ ___ _ ___ _ ___
 72
    65
 73
     4
 40
28.575
 49
19.05
 74
     4
 75
     0
340
0
 46
0.0
 50
0.0
 44
0.0
 45
0.0
 49
-3.175
 74
     4
 75
     0
340
0
 46
0.0
 50
0.0
 44
0.0
 45
0.0
 49
3.175
 74
     4
 75
     0
340
0
 46
0.0
 50
0.0
 44
0.0
 45
0.0
 49
-3.175
 74
     4
 75
     0
340
0
 46
0.0
 50
0.0
 44
0.0
 45
0.0
  0
ENDTAB
  0
TABLE
  2
LAYER
  5
2
330
0
100
AcDbSymbolTable
 70
     5
  0
LAYER
  5
10
330
2
100
AcDbSymbolTableRecord
100
AcDbLayerTableRecord
  2
0
 70
     0
 62
     7
  6
Continuous
370
    -3
390
F
347
46
  0
LAYER
  5
6A
330
2
100
AcDbSymbolTableRecord
100
AcDbLayerTableRecord
  2
Default
 70
     0
 62
     7
  6
Continuous
370
    -3
390
F
347
46
  0
LAYER
  5
6F
330
2
100
AcDbSymbolTableRecord
100
AcDbLayerTableRecord
  2
mittellinie
 70
     0
 62
     7
  6
Continuous
370
    -3
390
F
347
46
  0
LAYER
  5
97
330
2
100
AcDbSymbolTableRecord
100
AcDbLayerTableRecord
  2
visible
 70
     0
 62
     7
  6
Continuous
370
    -3
390
F
347
46
  0
LAYER
  5
AB
330
2
100
AcDbSymbolTableRecord
100
AcDbLayerTableRecord
  2
tangente
 70
     0
 62
     7
  6
Continuous
370
    -3
390
F
347
46
  0
ENDTAB
  0
TABLE
  2
STYLE
  5
3
330
0
100
AcDbSymbolTable
 70
     1
  0
STYLE
  5
11
330
3
100
AcDbSymbolTableRecord
100
AcDbTextStyleTableRecord
  2
Standard
 70
     0
 40
0.0
 41
1.0
 50
0.0
 71
     0
 42
10.0
  3
txt
  4

  0
ENDTAB
  0
TABLE
  2
VIEW
  5
6
330
0
100
AcDbSymbolTable
 70
     0
  0
ENDTAB
  0
TABLE
  2
UCS
  5
7
330
0
100
AcDbSymbolTable
 70
     0
  0
ENDTAB
  0
TABLE
  2
APPID
  5
9
330
0
100
AcDbSymbolTable
 70
     1
  0
APPID
  5
12
330
9
100
AcDbSymbolTableRecord
100
AcDbRegAppTableRecord
  2
ACAD
 70
     0
  0
ENDTAB
  0
TABLE
  2
DIMSTYLE
  5
A
330
0
100
AcDbSymbolTable
 70
     1
100
AcDbDimStyleTable
  0
DIMSTYLE
105
27
330
A
100
AcDbSymbolTableRecord
100
AcDbDimStyleTableRecord
  2
ISO-25
 70
     0
 41
2.5
 42
0.625
 43
3.75
 44
1.25
 73
     0
 74
     0
 77
     1
 78
     8
140
2.5
141
2.5
143
0.0393700787
147
0.625
171
     3
172
     1
178
     0
271
     2
272
     2
274
     3
278
    44
283
     0
284
     8
340
11
  0
ENDTAB
  0
TABLE
  2
BLOCK_RECORD
  5
1
330
0
100
AcDbSymbolTable
 70
     9
  0
BLOCK_RECORD
  5
1F
330
1
100
AcDbSymbolTableRecord
100
AcDbBlockTableRecord
  2
*Model_Space
340
22
 70
     0
280
     1
281
     0
  0
BLOCK_RECORD
  5
1B
330
1
100
AcDbSymbolTableRecord
100
AcDbBlockTableRecord
  2
*Paper_Space
340
1E
 70
     0
280
     1
281
     0
  0
BLOCK_RECORD
  5
6D
330
1
100
AcDbSymbolTableRecord
100
AcDbBlockTableRecord
  2
SEANNOT_GROUP
340
0
102
{BLKREFS
331
6E
102
}
 70
     0
280
     1
281
     0
  0
BLOCK_RECORD
  5
75
330
1
100
AcDbSymbolTableRecord
100
AcDbBlockTableRecord
  2
SEANNOT_GROUP1
340
0
102
{BLKREFS
331
76
102
}
 70
     0
280
     1
281
     0
  0
BLOCK_RECORD
  5
7B
330
1
100
AcDbSymbolTableRecord
100
AcDbBlockTableRecord
  2
SEANNOT_GROUP2
340
0
102
{BLKREFS
331
7C
102
}
 70
     0
280
     1
281
     0
  0
BLOCK_RECORD
  5
85
330
1
100
AcDbSymbolTableRecord
100
AcDbBlockTableRecord
  2
SEANNOT_GROUP3
340
0
102
{BLKREFS
331
86
102
}
 70
     0
280
     1
281
     0
  0
BLOCK_RECORD
  5
8F
330
1
100
AcDbSymbolTableRecord
100
AcDbBlockTableRecord
  2
SEANNOT_GROUP4
340
0
102
{BLKREFS
331
90
102
}
 70
     0
280
     1
281
     0
  0
BLOCK_RECORD
  5
95
330
1
100
AcDbSymbolTableRecord
100
AcDbBlockTableRecord
  2
SE
340
0
102
{BLKREFS
331
96
102
}
 70
     0
280
     1
281
     0
  0
BLOCK_RECORD
  5
13C
330
1
100
AcDbSymbolTableRecord
100
AcDbBlockTableRecord
  2
SE1
340
0
102
{BLKREFS
331
13D
102
}
 70
     0
280
     1
281
     0
  0
BLOCK_RECORD
  5
1D7
330
1
100
AcDbSymbolTableRecord
100
AcDbBlockTableRecord
  2
SE2
340
0
102
{BLKREFS
331
1D8
102
}
 70
     0
280
     1
281
     0
  0
ENDTAB
  0
ENDSEC
  0
SECTION
  2
BLOCKS
  0
BLOCK
  5
20
330
1F
100
AcDbEntity
  8
0
100
AcDbBlockBegin
  2
*Model_Space
 70
     0
 10
0.0
 20
0.0
 30
0.0
  3
*Model_Space
  1
*Model_Space
  0
ENDBLK
  5
21
330
1F
100
AcDbEntity
  8
0
100
AcDbBlockEnd
  0
BLOCK
  5
1C
330
1B
100
AcDbEntity
 67
     1
  8
0
100
AcDbBlockBegin
  2
*Paper_Space
 70
     0
 10
0.0
 20
0.0
 30
0.0
  3
*Paper_Space
  1
*Paper_Space
  0
ENDBLK
  5
1D
330
1B
100
AcDbEntity
 67
     1
  8
0
100
AcDbBlockEnd
  0
BLOCK
  5
73
330
6D
100
AcDbEntity
  8
0
100
AcDbBlockBegin
  2
SEANNOT_GROUP
 70
     0
 10
0.0
 20
0.0
 30
0.0
  3
SEANNOT_GROUP
  1
SEANNOT_GROUP
  0
LINE
  5
71
330
6D
100
AcDbEntity
  8
mittellinie
  6
CENTER2
 62
     7
100
AcDbLine
 10
132.4661821024
 20
684.3330735434
 30
0.0
 11
92.4661829964
 21
684.3330735434
 31
0.0
  0
LINE
  5
72
330
6D
100
AcDbEntity
  8
mittellinie
  6
CENTER2
 62
     7
100
AcDbLine
 10
112.4661825494
 20
704.3330730964
 30
0.0
 11
112.4661825494
 21
664.3330739904
 31
0.0
  0
ENDBLK
  5
74
330
6D
100
AcDbEntity
  8
0
100
AcDbBlockEnd
  0
BLOCK
  5
79
330
75
100
AcDbEntity
  8
0
100
AcDbBlockBegin
  2
SEANNOT_GROUP1
 70
     0
 10
0.0
 20
0.0
 30
0.0
  3
SEANNOT_GROUP1
  1
SEANNOT_GROUP1
  0
LINE
  5
77
330
75
100
AcDbEntity
  8
mittellinie
  6
CENTER2
 62
     7
100
AcDbLine
 10
283.4208075049
 20
684.3330735434
 30
0.0
 11
243.420808399
 21
684.3330735434
 31
0.0
  0
LINE
  5
78
330
75
100
AcDbEntity
  8
mittellinie
  6
CENTER2
 62
     7
100
AcDbLine
 10
263.4208079519
 20
704.3330730964
 30
0.0
 11
263.4208079519
 21
664.3330739904
 31
0.0
  0
ENDBLK
  5
7A
330
75
100
AcDbEntity
  8
0
100
AcDbBlockEnd
  0
BLOCK
  5
83
330
7B
100
AcDbEntity
  8
0
100
AcDbBlockBegin
  2
SEANNOT_GROUP2
 70
     0
 10
0.0
 20
0.0
 30
0.0
  3
SEANNOT_GROUP2
  1
SEANNOT_GROUP2
  0
LINE
  5
7D
330
7B
100
AcDbEntity
  8
mittellinie
  6
CENTER2
 62
     7
100
AcDbLine
 10
283.4208075049
 20
541.8740555438
 30
0.0
 11
243.420808399
 21
541.8740555438
 31
0.0
  0
LINE
  5
7E
330
7B
100
AcDbEntity
  8
mittellinie
  6
CENTER2
 62
     7
100
AcDbLine
 10
263.4208079519
 20
561.8740550968
 30
0.0
 11
263.4208079519
 21
521.8740559909
 31
0.0
  0
LINE
  5
7F
330
7B
100
AcDbEntity
  8
mittellinie
  6
CENTER2
 62
     7
100
AcDbLine
 10
288.4208064618
 20
541.8740555438
 30
0.0
 11
290.0208079519
 21
541.8740555438
 31
0.0
  0
LINE
  5
80
330
7B
100
AcDbEntity
  8
mittellinie
  6
CENTER2
 62
     7
100
AcDbLine
 10
263.4208079519
 20
566.8740540537
 30
0.0
 11
263.4208079519
 21
568.4740555438
 31
0.0
  0
LINE
  5
81
330
7B
100
AcDbEntity
  8
mittellinie
  6
CENTER2
 62
     7
100
AcDbLine
 10
238.4208094421
 20
541.8740555438
 30
0.0
 11
236.8208079519
 21
541.8740555438
 31
0.0
  0
LINE
  5
82
330
7B
100
AcDbEntity
  8
mittellinie
  6
CENTER2
 62
     7
100
AcDbLine
 10
263.4208079519
 20
516.8740570339
 30
0.0
 11
263.4208079519
 21
515.2740555438
 31
0.0
  0
ENDBLK
  5
84
330
7B
100
AcDbEntity
  8
0
100
AcDbBlockEnd
  0
BLOCK
  5
8D
330
85
100
AcDbEntity
  8
0
100
AcDbBlockBegin
  2
SEANNOT_GROUP3
 70
     0
 10
0.0
 20
0.0
 30
0.0
  3
SEANNOT_GROUP3
  1
SEANNOT_GROUP3
  0
LINE
  5
87
330
85
100
AcDbEntity
  8
mittellinie
  6
CENTER2
 62
     7
100
AcDbLine
 10
132.4661821024
 20
541.8740555438
 30
0.0
 11
92.4661829964
 21
541.8740555438
 31
0.0
  0
LINE
  5
88
330
85
100
AcDbEntity
  8
mittellinie
  6
CENTER2
 62
     7
100
AcDbLine
 10
112.4661825494
 20
561.8740550968
 30
0.0
 11
112.4661825494
 21
521.8740559909
 31
0.0
  0
LINE
  5
89
330
85
100
AcDbEntity
  8
mittellinie
  6
CENTER2
 62
     7
100
AcDbLine
 10
137.4661810593
 20
541.8740555438
 30
0.0
 11
139.0661825494
 21
541.8740555438
 31
0.0
  0
LINE
  5
8A
330
85
100
AcDbEntity
  8
mittellinie
  6
CENTER2
 62
     7
100
AcDbLine
 10
112.4661825494
 20
566.8740540537
 30
0.0
 11
112.4661825494
 21
568.4740555438
 31
0.0
  0
LINE
  5
8B
330
85
100
AcDbEntity
  8
mittellinie
  6
CENTER2
 62
     7
100
AcDbLine
 10
87.4661840395
 20
541.8740555438
 30
0.0
 11
85.8661825494
 21
541.8740555438
 31
0.0
  0
LINE
  5
8C
330
85
100
AcDbEntity
  8
mittellinie
  6
CENTER2
 62
     7
100
AcDbLine
 10
112.4661825494
 20
516.8740570339
 30
0.0
 11
112.4661825494
 21
515.2740555438
 31
0.0
  0
ENDBLK
  5
8E
330
85
100
AcDbEntity
  8
0
100
AcDbBlockEnd
  0
BLOCK
  5
93
330
8F
100
AcDbEntity
  8
0
100
AcDbBlockBegin
  2
SEANNOT_GROUP4
 70
     0
 10
0.0
 20
0.0
 30
0.0
  3
SEANNOT_GROUP4
  1
SEANNOT_GROUP4
  0
LINE
  5
91
330
8F
100
AcDbEntity
  8
mittellinie
  6
CENTER2
 62
     7
100
AcDbLine
 10
474.9753519275
 20
684.3330735434
 30
0.0
 11
434.9753528216
 21
684.3330735434
 31
0.0
  0
LINE
  5
92
330
8F
100
AcDbEntity
  8
mittellinie
  6
CENTER2
 62
     7
100
AcDbLine
 10
454.9753523746
 20
704.3330730964
 30
0.0
 11
454.9753523746
 21
664.3330739904
 31
0.0
  0
ENDBLK
  5
94
330
8F
100
AcDbEntity
  8
0
100
AcDbBlockEnd
  0
BLOCK
  5
13A
330
95
100
AcDbEntity
  8
0
100
AcDbBlockBegin
  2
SE
 70
     0
 10
0.0
 20
0.0
 30
0.0
  3
SE
  1
SE
  0
SPLINE
  5
98
330
95
100
AcDbEntity
  8
visible
  6
Continuous
 62
     5
100
AcDbSpline
210
0.0
220
0.0
230
1.0
 70
     8
 71
     6
 72
    14
 73
     7
 74
     0
 42
0.000000001
 43
0.0000000001
 40
0.790665966384454
 40
0.790665966384454
 40
0.790665966384454
 40
0.790665966384454
 40
0.790665966384454
 40
0.790665966384454
 40
0.790665966384454
 40
0.8641134179926234
 40
0.8641134179926234
 40
0.8641134179926234
 40
0.8641134179926234
 40
0.8641134179926234
 40
0.8641134179926234
 40
0.8641134179926234
 10
305.2303222951143
 20
689.0441786621809
 30
0.0
 10
305.124488864217
 20
688.8452514659425
 30
0.0
 10
305.0232442884694
 20
688.643968567428
 30
0.0
 10
304.9265954374669
 20
688.4405032490411
 30
0.0
 10
304.8345297381238
 20
688.2350297243393
 30
0.0
 10
304.7470140772357
 20
688.0277204009111
 30
0.0
 10
304.6639940443453
 20
687.8187428130674
 30
0.0
  0
SPLINE
  5
99
330
95
100
AcDbEntity
  8
visible
  6
Continuous
 62
     5
100
AcDbSpline
210
0.0
220
0.0
230
1.0
 70
     8
 71
     3
 72
     8
 73
     4
 74
     0
 42
0.000000001
 43
0.0000000001
 40
0.3667358823723416
 40
0.3667358823723416
 40
0.3667358823723416
 40
0.3667358823723416
 40
0.3705893696588544
 40
0.3705893696588544
 40
0.3705893696588544
 40
0.3705893696588544
 10
358.164378438383
 20
703.6071519008638
 30
0.0
 10
358.2060411196125
 20
703.5995834748985
 30
0.0
 10
358.2476069888514
 20
703.5919274923436
 30
0.0
 10
358.2890755411261
 20
703.5841838963831
 30
0.0
  0
SPLINE
  5
9A
330
95
100
AcDbEntity
  8
visible
  6
Continuous
 62
     5
100
AcDbSpline
210
0.0
220
0.0
230
1.0
 70
     8
 71
     6
 72
    14
 73
     7
 74
     0
 42
0.000000001
 43
0.0000000001
 40
0.1767703569694802
 40
0.1767703569694802
 40
0.1767703569694802
 40
0.1767703569694802
 40
0.1767703569694802
 40
0.1767703569694802
 40
0.1767703569694802
 40
0.2103976259991555
 40
0.2103976259991555
 40
0.2103976259991555
 40
0.2103976259991555
 40
0.2103976259991555
 40
0.2103976259991555
 40
0.2103976259991555
 10
71.04202647865401
 20
688.5083567751158
 30
0.0
 10
70.9982273292689
 20
688.601668667443
 30
0.0
 10
70.95346860112298
 20
688.6945512053896
 30
0.0
 10
70.90774841237389
 20
688.7869877975038
 30
0.0
 10
70.86106577530914
 20
688.8789617837514
 30
0.0
 10
70.81342057730356
 20
688.9704564935257
 30
0.0
 10
70.76481355864246
 20
689.0614553006149
 30
0.0
  0
LINE
  5
9B
330
95
100
AcDbEntity
  8
visible
  6
Continuous
 62
     5
100
AcDbLine
 10
250.0292118187
 20
683.032508027
 30
0.0
 11
188.0021728876
 21
683.032508027
 31
0.0
  0
LINE
  5
9C
330
95
100
AcDbEntity
  8
visible
  6
Continuous
 62
     5
100
AcDbLine
 10
301.0229840627
 20
683.032508027
 30
0.0
 11
250.0292118187
 21
683.032508027
 31
0.0
  0
ARC
  5
9D
330
95
100
AcDbEntity
  8
visible
  6
Continuous
 62
     5
100
AcDbCircle
 10
301.3866546212
 20
685.5872133644
 30
0.0
 40
2.580460353496809
100
AcDbArc
 50
261.8981942346
 51
283.5942109854
  0
LINE
  5
9E
330
95
100
AcDbEntity
  8
visible
  6
Continuous
 62
     5
100
AcDbLine
 10
369.1576458846
 20
693.5325075001
 30
0.0
 11
188.0021728876
 21
693.532507431
 31
0.0
  0
ARC
  5
9F
330
95
100
AcDbEntity
  8
visible
  6
Continuous
 62
     5
100
AcDbCircle
 10
350.2777186675
 20
11393.6870433685
 30
0.0
 40
10704.65960734085
100
AcDbArc
 50
269.9149574577
 51
269.9532270038
  0
ARC
  5
A0
330
95
100
AcDbEntity
  8
visible
  6
Continuous
 62
     5
100
AcDbCircle
 10
74.6176911647
 20
685.5872133912
 30
0.0
 40
2.580460378602407
100
AcDbArc
 50
256.4057889213
 51
278.1018054616
  0
LINE
  5
A1
330
95
100
AcDbEntity
  8
visible
  6
Continuous
 62
     5
100
AcDbLine
 10
125.975133957
 20
683.032508027
 30
0.0
 11
74.9813617132
 21
683.032508027
 31
0.0
  0
LINE
  5
A2
330
95
100
AcDbEntity
  8
visible
  6
Continuous
 62
     5
100
AcDbLine
 10
188.0021728876
 20
683.032508027
 30
0.0
 11
125.975133957
 21
683.032508027
 31
0.0
  0
ARC
  5
A3
330
95
100
AcDbEntity
  8
visible
  6
Continuous
 62
     5
100
AcDbCircle
 10
25.6657404048
 20
11460.4338703053
 30
0.0
 40
10771.40643777126
100
AcDbArc
 50
270.0614554046
 51
270.084847029
  0
LINE
  5
A4
330
95
100
AcDbEntity
  8
visible
  6
Continuous
 62
     5
100
AcDbLine
 10
188.0021728876
 20
693.532507431
 30
0.0
 11
6.819296337
 21
693.5325075001
 31
0.0
  0
ARC
  5
A5
330
95
100
AcDbEntity
  8
visible
  6
Continuous
 62
     5
100
AcDbCircle
 10
342.7794657334
 20
156.0719494359
 30
0.0
 40
532.9902446040437
100
AcDbArc
 50
90.3040071309
 51
90.6047033595
  0
LINE
  5
A6
330
95
100
AcDbEntity
  8
visible
  6
Continuous
 62
     5
100
AcDbLine
 10
335.7406514906
 20
689.0325098822
 30
0.0
 11
337.1543545405
 21
689.0325098822
 31
0.0
  0
LINE
  5
A7
330
95
100
AcDbEntity
  8
visible
  6
Continuous
 62
     5
100
AcDbLine
 10
337.9832812931
 20
689.032632025
 30
0.0
 11
335.7171502994
 21
689.0325098813
 31
0.0
  0
ARC
  5
A8
330
95
100
AcDbEntity
  8
visible
  6
Continuous
 62
     5
100
AcDbCircle
 10
334.4434792688
 20
795.1189844912
 30
0.0
 40
106.096185126762
100
AcDbArc
 50
269.2060068089
 51
271.0197582663
  0
LINE
  5
A9
330
95
100
AcDbEntity
  8
visible
  6
Continuous
 62
     5
100
AcDbLine
 10
330.5140920082
 20
689.0325098828
 30
0.0
 11
332.9731383127
 21
689.0325388883
 31
0.0
  0
LINE
  5
AA
330
95
100
AcDbEntity
  8
visible
  6
Continuous
 62
     5
100
AcDbLine
 10
328.9144451292
 20
689.0325098822
 30
0.0
 11
329.1588808993
 21
689.0325098822
 31
0.0
  0
ARC
  5
AC
330
95
100
AcDbEntity
  8
tangente
  6
Continuous
 62
     5
100
AcDbCircle
 10
330.3076668854
 20
2152.164869744
 30
0.0
 40
1463.133023188561
100
AcDbArc
 50
269.9454418687
 51
270.0608495186
  0
SPLINE
  5
AD
330
95
100
AcDbEntity
  8
visible
  6
Continuous
 62
     5
100
AcDbSpline
210
0.0
220
0.0
230
1.0
 70
     8
 71
     3
 72
     8
 73
     4
 74
     0
 42
0.000000001
 43
0.0000000001
 40
0.3683678372620811
 40
0.3683678372620811
 40
0.3683678372620811
 40
0.3683678372620811
 40
0.403990377112629
 40
0.403990377112629
 40
0.403990377112629
 40
0.403990377112629
 10
17.78500017433574
 20
703.5972973369485
 30
0.0
 10
17.40038047705053
 20
703.5267989528988
 30
0.0
 10
17.02410528440229
 20
703.4488140888677
 30
0.0
 10
16.6565759392818
 20
703.363292447504
 30
0.0
  0
LINE
  5
AE
330
95
100
AcDbEntity
  8
visible
  6
Continuous
 62
     5
100
AcDbLine
 10
296.3131408809
 20
689.0325098822
 30
0.0
 11
296.7795866521
 21
689.0325098822
 31
0.0
  0
LINE
  5
AF
330
95
100
AcDbEntity
  8
visible
  6
Continuous
 62
     5
100
AcDbLine
 10
335.7171493374
 20
689.0325098822
 30
0.0
 11
330.5583319299
 21
689.0325098822
 31
0.0
  0
LINE
  5
B0
330
95
100
AcDbEntity
  8
visible
  6
Continuous
 62
     5
100
AcDbLine
 10
302.9784286274
 20
689.0325098822
 30
0.0
 11
296.7795866521
 21
689.0325098822
 31
0.0
  0
LINE
  5
B1
330
95
100
AcDbEntity
  8
visible
  6
Continuous
 62
     5
100
AcDbLine
 10
321.6973377179
 20
689.0325098822
 30
0.0
 11
302.9784286274
 21
689.0325098822
 31
0.0
  0
LINE
  5
B2
330
95
100
AcDbEntity
  8
visible
  6
Continuous
 62
     5
100
AcDbLine
 10
328.9144439953
 20
689.0325098822
 30
0.0
 11
321.6973377179
 21
689.0325098822
 31
0.0
  0
ARC
  5
B3
330
95
100
AcDbEntity
  8
visible
  6
Continuous
 62
     5
100
AcDbCircle
 10
45.7186968787
 20
2166.5191943496
 30
0.0
 40
1477.487320751531
100
AcDbArc
 50
269.936165704
 51
270.0531742401
  0
LINE
  5
B4
330
95
100
AcDbEntity
  8
visible
  6
Continuous
 62
     5
100
AcDbLine
 10
43.0311418579
 20
689.032784582
 30
0.0
 11
45.3088611037
 21
689.0325301442
 31
0.0
  0
ARC
  5
B5
330
95
100
AcDbEntity
  8
visible
  6
Continuous
 62
     5
100
AcDbCircle
 10
41.4333186913
 20
732.9231449562
 30
0.0
 40
43.91962540225311
100
AcDbArc
 50
267.7849094369
 51
272.0848616378
  0
ARC
  5
B6
330
95
100
AcDbEntity
  8
visible
  6
Continuous
 62
     5
100
AcDbCircle
 10
37.1677352651
 20
651.950358653
 30
0.0
 40
37.09245999255223
100
AcDbArc
 50
88.6815719771
 51
90.2230082742
  0
LINE
  5
B7
330
95
100
AcDbEntity
  8
visible
  6
Continuous
 62
     5
100
AcDbLine
 10
40.2871973998
 20
689.0325098814
 30
0.0
 11
38.0211093561
 21
689.0328363384
 31
0.0
  0
LINE
  5
B8
330
95
100
AcDbEntity
  8
visible
  6
Continuous
 62
     5
100
AcDbLine
 10
38.8499869339
 20
689.0325098822
 30
0.0
 11
40.2242246297
 21
689.0325098822
 31
0.0
  0
ARC
  5
B9
330
95
100
AcDbEntity
  8
visible
  6
Continuous
 62
     5
100
AcDbCircle
 10
33.2962787178
 20
341.6386485909
 30
0.0
 40
347.4382514369567
100
AcDbArc
 50
89.0841028153
 51
89.4958102062
  0
SPLINE
  5
BA
330
95
100
AcDbEntity
  8
tangente
  6
Continuous
 62
     5
100
AcDbSpline
210
0.0
220
0.0
230
1.0
 70
     8
 71
     3
 72
     8
 73
     4
 74
     0
 42
0.000000001
 43
0.0000000001
 40
0.9529528648053581
 40
0.9529528648053581
 40
0.9529528648053581
 40
0.9529528648053581
 40
1.0
 40
1.0
 40
1.0
 40
1.0
 10
328.8892072499291
 20
689.0327780337673
 30
0.0
 10
328.8976452149545
 20
689.0325566527962
 30
0.0
 10
328.9060460894742
 20
689.0325098822157
 30
0.0
 10
328.9144439952701
 20
689.0325098821593
 30
0.0
  0
LINE
  5
BB
330
95
100
AcDbEntity
  8
visible
  6
Continuous
 62
     5
100
AcDbLine
 10
54.3070080572
 20
689.0325098822
 30
0.0
 11
47.0899017903
 21
689.0325098822
 31
0.0
  0
LINE
  5
BC
330
95
100
AcDbEntity
  8
visible
  6
Continuous
 62
     5
100
AcDbLine
 10
73.0259171477
 20
689.0325098822
 30
0.0
 11
54.3070080572
 21
689.0325098822
 31
0.0
  0
LINE
  5
BD
330
95
100
AcDbEntity
  8
visible
  6
Continuous
 62
     5
100
AcDbLine
 10
79.224759123
 20
689.0325098822
 30
0.0
 11
73.0259171477
 21
689.0325098822
 31
0.0
  0
LINE
  5
BE
330
95
100
AcDbEntity
  8
visible
  6
Continuous
 62
     5
100
AcDbLine
 10
79.6911755824
 20
689.0325098822
 30
0.0
 11
79.224759123
 21
689.0325098822
 31
0.0
  0
LINE
  5
BF
330
95
100
AcDbEntity
  8
visible
  6
Continuous
 62
     5
100
AcDbLine
 10
45.4460137582
 20
689.0325098822
 30
0.0
 11
40.2871973999
 21
689.0325098822
 31
0.0
  0
ARC
  5
C0
330
95
100
AcDbEntity
  8
visible
  6
Continuous
 62
     5
100
AcDbCircle
 10
317.7275104324
 20
682.6480142927
 30
0.0
 40
14.04744138303461
100
AcDbArc
 50
158.4068168821
 51
168.5796893162
  0
ARC
  5
C1
330
95
100
AcDbEntity
  8
visible
  6
Continuous
 62
     5
100
AcDbCircle
 10
404.5571301041
 20
917.7185319592
 30
0.0
 40
219.0779458567753
100
AcDbArc
 50
256.7031885641
 51
257.774296886
  0
ARC
  5
C2
330
95
100
AcDbEntity
  8
visible
  6
Continuous
 62
     5
100
AcDbCircle
 10
59.1595051752
 20
682.9127797257
 30
0.0
 40
13.12843042248358
100
AcDbArc
 50
11.0484561586
 51
25.2172033554
  0
SPLINE
  5
C3
330
95
100
AcDbEntity
  8
visible
  6
Continuous
 62
     5
100
AcDbSpline
210
0.0
220
0.0
230
1.0
 70
     8
 71
     3
 72
    11
 73
     7
 74
     0
 42
0.000000001
 43
0.0000000001
 40
0.0
 40
0.0
 40
0.0
 40
0.0
 40
0.2502742943116258
 40
0.5020562630636147
 40
0.7529829013625987
 40
1.0
 40
1.0
 40
1.0
 40
1.0
 10
301.9875554216954
 20
683.0953512074841
 30
0.0
 10
302.2843379296069
 20
683.1754667352989
 30
0.0
 10
302.7815425749669
 20
683.3240199303642
 30
0.0
 10
303.4306872427647
 20
683.9027193120062
 30
0.0
 10
303.7938323580925
 20
684.6670854474269
 30
0.0
 10
303.8857481066563
 20
685.1489893645537
 30
0.0
 10
303.9313068942072
 20
685.435146794223
 30
0.0
  0
ARC
  5
C4
330
95
100
AcDbEntity
  8
visible
  6
Continuous
 62
     5
100
AcDbCircle
 10
353.5491608203
 20
8925.6437427703
 30
0.0
 40
8236.621397045552
100
AcDbArc
 50
269.9169592066
 51
270.0686770926
  0
ARC
  5
C5
330
95
100
AcDbEntity
  8
visible
  6
Continuous
 62
     5
100
AcDbCircle
 10
259.5691399214
 20
19921.8880343005
 30
0.0
 40
19232.99485467604
100
AcDbArc
 50
269.7867996951
 51
270.2229666292
  0
ARC
  5
C6
330
95
100
AcDbEntity
  8
visible
  6
Continuous
 62
     5
100
AcDbCircle
 10
363.6481026946
 20
696.971255912
 30
0.0
 40
7.94266673487427
100
AcDbArc
 50
266.6543911229
 51
268.8087033673
  0
SPLINE
  5
C7
330
95
100
AcDbEntity
  8
visible
  6
Continuous
 62
     5
100
AcDbSpline
210
0.0
220
0.0
230
1.0
 70
     8
 71
     3
 72
    23
 73
    19
 74
     0
 42
0.000000001
 43
0.0000000001
 40
0.0
 40
0.0
 40
0.0
 40
0.0
 40
0.1549251532961479
 40
0.2895707134692009
 40
0.403505256324289
 40
0.4965119027610816
 40
0.5685949220717406
 40
0.6200772587662572
 40
0.6521282752580652
 40
0.6623723476830148
 40
0.6723933328752577
 40
0.722962059421316
 40
0.7544476010425226
 40
0.7902233733517264
 40
0.83096110306985
 40
0.8780191722461761
 40
0.9334949475318468
 40
1.0
 40
1.0
 40
1.0
 40
1.0
 10
363.4785648225719
 20
689.0285197023513
 30
0.0
 10
363.7592398871101
 20
689.0344410420126
 30
0.0
 10
364.2015055039824
 20
689.046536733467
 30
0.0
 10
364.9002485771534
 20
689.1175586636272
 30
0.0
 10
365.4936244642357
 20
689.2166721182423
 30
0.0
 10
366.0012745703835
 20
689.3367604160617
 30
0.0
 10
366.4205329231261
 20
689.4655283062328
 30
0.0
 10
366.7611274371472
 20
689.59628032747
 30
0.0
 10
367.0077522923625
 20
689.7071486770628
 30
0.0
 10
367.2031112877585
 20
689.8100913465147
 30
0.0
 10
367.4722818690062
 20
689.9632551055926
 30
0.0
 10
367.8053974462997
 20
690.194582969555
 30
0.0
 10
368.1829438272234
 20
690.5500101673717
 30
0.0
 10
368.4836375082504
 20
690.9184243139872
 30
0.0
 10
368.7587768432346
 20
691.3888313393521
 30
0.0
 10
368.9808740728388
 20
691.9761561457356
 30
0.0
 10
369.1282559660142
 20
692.7183943434352
 30
0.0
 10
369.1489918446485
 20
693.2125871851091
 30
0.0
 10
369.1576417802587
 20
693.5325074304667
 30
0.0
  0
SPLINE
  5
C8
330
95
100
AcDbEntity
  8
visible
  6
Continuous
 62
     5
100
AcDbSpline
210
0.0
220
0.0
230
1.0
 70
     8
 71
     3
 72
    24
 73
    20
 74
     0
 42
0.000000001
 43
0.0000000001
 40
0.0
 40
0.0
 40
0.0
 40
0.0
 40
0.0559956295163687
 40
0.1102823985111068
 40
0.1637858668817464
 40
0.2042017896835146
 40
0.2456201133380386
 40
0.2889143883825179
 40
0.3351763721089729
 40
0.3856163066537766
 40
0.4414953527337444
 40
0.5040651747626946
 40
0.5745571314635436
 40
0.6268121286000384
 40
0.6846937051058094
 40
0.7497235065449537
 40
0.8235128916153245
 40
0.9076570986014932
 40
1.0
 40
1.0
 40
1.0
 40
1.0
 10
369.2166950554589
 20
693.5325074305897
 30
0.0
 10
369.1648517743917
 20
693.9788181477006
 30
0.0
 10
369.0726178432399
 20
694.7186709686343
 30
0.0
 10
368.8153504890199
 20
695.9074856816522
 30
0.0
 10
368.4758396667528
 20
696.9186396716606
 30
0.0
 10
368.0681685487708
 20
697.7937047319791
 30
0.0
 10
367.6186979346152
 20
698.5445974237713
 30
0.0
 10
367.0827257873262
 20
699.2573417424823
 30
0.0
 10
366.4592946635342
 20
699.9279961975699
 30
0.0
 10
365.748242579539
 20
700.5543994319919
 30
0.0
 10
364.9499320806201
 20
701.1348528700229
 30
0.0
 10
364.0644043941278
 20
701.6683329655214
 30
0.0
 10
363.2156245564823
 20
702.0919002093764
 30
0.0
 10
362.4124595189843
 20
702.4352073913864
 30
0.0
 10
361.6688799683468
 20
702.7132000476969
 30
0.0
 10
360.8822068876469
 20
702.9691050626554
 30
0.0
 10
360.0528682647116
 20
703.2019259170229
 30
0.0
 10
359.1757788376625
 20
703.4129812086123
 30
0.0
 10
358.6275631911188
 20
703.5214144507559
 30
0.0
 10
358.2893253045495
 20
703.5869233445452
 30
0.0
  0
SPLINE
  5
C9
330
95
100
AcDbEntity
  8
visible
  6
Continuous
 62
     5
100
AcDbSpline
210
0.0
220
0.0
230
1.0
 70
     8
 71
     3
 72
    11
 73
     7
 74
     0
 42
0.000000001
 43
0.0000000001
 40
0.0
 40
0.0
 40
0.0
 40
0.0
 40
0.2470170986373956
 40
0.4979437369363648
 40
0.7497257056883742
 40
1.0
 40
1.0
 40
1.0
 40
1.0
 10
72.07303888090277
 20
685.435146794223
 30
0.0
 10
72.11859766845369
 20
685.1489893645537
 30
0.0
 10
72.21051341701744
 20
684.667085447427
 30
0.0
 10
72.57365853234553
 20
683.9027193120062
 30
0.0
 10
73.2228032001429
 20
683.3240199303642
 30
0.0
 10
73.720007845503
 20
683.1754667352988
 30
0.0
 10
74.01679035341448
 20
683.0953512074841
 30
0.0
  0
SPLINE
  5
CA
330
95
100
AcDbEntity
  8
visible
  6
Continuous
 62
     5
100
AcDbSpline
210
0.0
220
0.0
230
1.0
 70
     8
 71
     3
 72
    23
 73
    19
 74
     0
 42
0.000000001
 43
0.0000000001
 40
0.0
 40
0.0
 40
0.0
 40
0.0
 40
0.0598508812850758
 40
0.1098338596995597
 40
0.1518914257940503
 40
0.1875643876825387
 40
0.2433950878979476
 40
0.2644933264084392
 40
0.2739124966034023
 40
0.2849040947250802
 40
0.3159918206296998
 40
0.3624164385122073
 40
0.4254931226302956
 40
0.5057785074599995
 40
0.6035141310598955
 40
0.7186986198291909
 40
0.8510590219451948
 40
1.0
 40
1.0
 40
1.0
 40
1.0
 10
6.819295631187244
 20
693.5325074304955
 30
0.0
 10
6.825999567491775
 20
693.2536659384327
 30
0.0
 10
6.841447513011661
 20
692.8230448148689
 30
0.0
 10
6.948392678342352
 20
692.1758566172443
 30
0.0
 10
7.105301192012748
 20
691.6605419918268
 30
0.0
 10
7.338925061759261
 20
691.1473604292827
 30
0.0
 10
7.611549715017873
 20
690.7521660078014
 30
0.0
 10
7.852100411844532
 20
690.4924801994016
 30
0.0
 10
7.98018043290133
 20
690.3689755469092
 30
0.0
 10
8.139352674324197
 20
690.2284205788059
 30
0.0
 10
8.36828493338121
 20
690.055069699526
 30
0.0
 10
8.685956074129281
 20
689.8549025655585
 30
0.0
 10
9.086950826133421
 20
689.65145746935
 30
0.0
 10
9.580241729068184
 20
689.4564405665104
 30
0.0
 10
10.17369125949275
 20
689.2824610835754
 30
0.0
 10
10.86452807911437
 20
689.1434090851096
 30
0.0
 10
11.67222194224515
 20
689.0480294106119
 30
0.0
 10
12.18188255205144
 20
689.0344100411489
 30
0.0
 10
12.50242847455002
 20
689.0282009472606
 30
0.0
  0
ARC
  5
CB
330
95
100
AcDbEntity
  8
visible
  6
Continuous
 62
     5
100
AcDbCircle
 10
116.5406232482
 20
20648.0773645053
 30
0.0
 40
19959.17914039321
100
AcDbArc
 50
269.7849028049
 51
270.2051421539
  0
LINE
  5
CC
330
95
100
AcDbEntity
  8
visible
  6
Continuous
 62
     5
100
AcDbLine
 10
34.6760715659
 20
689.0312931695
 30
0.0
 11
37.1629849174
 21
689.0340079154
 31
0.0
  0
ARC
  5
CD
330
95
100
AcDbEntity
  8
visible
  6
Continuous
 62
     5
100
AcDbCircle
 10
22.430074252
 20
8987.7383139962
 30
0.0
 40
8298.716056232366
100
AcDbArc
 50
269.931567686
 51
270.0845485268
  0
SPLINE
  5
CE
330
95
100
AcDbEntity
  8
visible
  6
Continuous
 62
     5
100
AcDbSpline
210
0.0
220
0.0
230
1.0
 70
     8
 71
     3
 72
    10
 73
     6
 74
     0
 42
0.000000001
 43
0.0000000001
 40
0.3219619817867347
 40
0.3219619817867347
 40
0.3219619817867347
 40
0.3219619817867347
 40
0.5451675671848131
 40
0.824362941667555
 40
1.0
 40
1.0
 40
1.0
 40
1.0
 10
12.38813594489604
 20
689.0289546921509
 30
0.0
 10
12.38774253073024
 20
689.0294025874379
 30
0.0
 10
12.42437957310008
 20
689.0309948149353
 30
0.0
 10
12.56474459423754
 20
689.0349003589474
 30
0.0
 10
12.72441702499666
 20
689.03948794865
 30
0.0
 10
12.79867983055297
 20
689.041606112936
 30
0.0
  0
SPLINE
  5
CF
330
95
100
AcDbEntity
  8
visible
  6
Continuous
 62
     5
100
AcDbSpline
210
0.0
220
0.0
230
1.0
 70
     8
 71
     3
 72
    23
 73
    19
 74
     0
 42
0.000000001
 43
0.0000000001
 40
0.0
 40
0.0
 40
0.0
 40
0.0
 40
0.0704949652025026
 40
0.1556156426641999
 40
0.2311699687478191
 40
0.299043063777313
 40
0.3601875432304262
 40
0.4411661143767628
 40
0.5117619244188149
 40
0.5740926247812939
 40
0.6295393966024978
 40
0.6795135109032421
 40
0.7256923544654776
 40
0.7699644577684981
 40
0.8138329205165741
 40
0.8736253082715222
 40
0.9356496825383451
 40
1.0
 40
1.0
 40
1.0
 40
1.0
 10
16.65678762867293
 20
703.3620770136926
 30
0.0
 10
16.42101539723462
 20
703.308564148588
 30
0.0
 10
15.97936032824609
 20
703.2066791913377
 30
0.0
 10
15.19309973142935
 20
702.9880520341743
 30
0.0
 10
14.39465449454647
 20
702.7315643680331
 30
0.0
 10
13.64112613889387
 20
702.4526508298995
 30
0.0
 10
12.83411529019451
 20
702.1107742877092
 30
0.0
 10
11.97557670831251
 20
701.6860619619235
 30
0.0
 10
11.07798485914402
 20
701.1485540126176
 30
0.0
 10
10.27491218609858
 20
700.567472752624
 30
0.0
 10
9.560277122062894
 20
699.9408047605071
 30
0.0
 10
8.932143241465408
 20
699.2679204795055
 30
0.0
 10
8.38988455180928
 20
698.5485929789156
 30
0.0
 10
7.936537506123914
 20
697.791621679242
 30
0.0
 10
7.524729151048376
 20
696.9064412694885
 30
0.0
 10
7.186722125129968
 20
695.8953835101299
 30
0.0
 10
6.931462108256515
 20
694.7156224356506
 30
0.0
 10
6.839343684513999
 20
693.9781463737371
 30
0.0
 10
6.78765942966697
 20
693.5325074305879
 30
0.0
  0
SPLINE
  5
D0
330
95
100
AcDbEntity
  8
visible
  6
Continuous
 62
     5
100
AcDbSpline
210
0.0
220
0.0
230
1.0
 70
     8
 71
     3
 72
    76
 73
    72
 74
     0
 42
0.000000001
 43
0.0000000001
 40
0.1691563190096208
 40
0.1691563190096208
 40
0.1691563190096208
 40
0.1691563190096208
 40
0.1727707448391176
 40
0.1840688227600877
 40
0.1936142851349521
 40
0.2030384602785497
 40
0.2153859367073638
 40
0.2314352928235283
 40
0.248959640093388
 40
0.2675359459032673
 40
0.2855580483283282
 40
0.2978833776391968
 40
0.3084379792598779
 40
0.3172177823798095
 40
0.3249929989807026
 40
0.3344324738383043
 40
0.3457027668387077
 40
0.357019690056106
 40
0.3662039428898531
 40
0.3729290444240839
 40
0.3796685393197302
 40
0.3883333213626755
 40
0.3980498058558714
 40
0.4067721379153763
 40
0.4142124601098445
 40
0.4200456331040843
 40
0.4270414549792242
 40
0.4350764178509559
 40
0.4416527453873376
 40
0.4467604296272263
 40
0.4514554912505373
 40
0.4567595636485471
 40
0.4625608435043023
 40
0.468883133822127
 40
0.4742168232808915
 40
0.4781575054907838
 40
0.4827712995625146
 40
0.4888808826072688
 40
0.4939419353717287
 40
0.4988303500259974
 40
0.5049580244774614
 40
0.5113375997739152
 40
0.5185705995045327
 40
0.5272947351709899
 40
0.5351192820707706
 40
0.5421257820025256
 40
0.5495083050609324
 40
0.5579846831821185
 40
0.5746718790187563
 40
0.5934064001508386
 40
0.6133534765720232
 40
0.6328707070913779
 40
0.6509313948908013
 40
0.6616137083433573
 40
0.6730829472831236
 40
0.6853638339877131
 40
0.6961410511610235
 40
0.7052330346590978
 40
0.7126596220441666
 40
0.7192168294393781
 40
0.7247653567483201
 40
0.7298479296143745
 40
0.7366765986651906
 40
0.7458220136111504
 40
0.7571840988965471
 40
0.7709101718283135
 40
0.7866988347270524
 40
0.8049151483432455
 40
0.82509020761873
 40
0.8469274240664744
 40
0.847539485420455
 40
0.847539485420455
 40
0.847539485420455
 40
0.847539485420455
 10
331.3021279108635
 20
702.519858687679
 30
0.0
 10
331.3020086043293
 20
702.5198625639998
 30
0.0
 10
331.2945702978345
 20
702.51956623488
 30
0.0
 10
331.2370811963689
 20
702.5171444225855
 30
0.0
 10
331.0943674792732
 20
702.5114692964705
 30
0.0
 10
330.8329288702902
 20
702.5017544376303
 30
0.0
 10
330.4083212115449
 20
702.487376839648
 30
0.0
 10
329.7647541605698
 20
702.4681337092558
 30
0.0
 10
328.8544309617106
 20
702.4450931434097
 30
0.0
 10
327.7366482855895
 20
702.4221479531205
 30
0.0
 10
326.5761822522706
 20
702.4037047315708
 30
0.0
 10
325.516420018503
 20
702.39078418252
 30
0.0
 10
324.6354956400654
 20
702.382363090831
 30
0.0
 10
323.8248394892171
 20
702.3763855344561
 30
0.0
 10
322.9755051413435
 20
702.371752740916
 30
0.0
 10
322.0000253552021
 20
702.368383290563
 30
0.0
 10
320.8500119893667
 20
702.3670729106449
 30
0.0
 10
319.6503423646041
 20
702.3686359848668
 30
0.0
 10
318.5701461055631
 20
702.3723730013268
 30
0.0
 10
317.649540258032
 20
702.3770491712363
 30
0.0
 10
316.7223474987107
 20
702.3829783747271
 30
0.0
 10
315.6361991791412
 20
702.3915340219194
 30
0.0
 10
314.4357593739843
 20
702.40302874822
 30
0.0
 10
313.2629275622425
 20
702.4161600664879
 30
0.0
 10
312.2446510059186
 20
702.4289355682118
 30
0.0
 10
311.2785640978984
 20
702.4420961191381
 30
0.0
 10
310.2704578051669
 20
702.4568483905317
 30
0.0
 10
309.2109687015284
 20
702.4735465154189
 30
0.0
 10
308.2274920499393
 20
702.4900735744319
 30
0.0
 10
307.3973430837985
 20
702.5046902745453
 30
0.0
 10
306.6224920301721
 20
702.5188382998059
 30
0.0
 10
305.8029351739767
 20
702.534329723103
 30
0.0
 10
304.8890340421067
 20
702.5522333211521
 30
0.0
 10
303.9629065143479
 20
702.5710423632357
 30
0.0
 10
303.1265315088705
 20
702.5885799501303
 30
0.0
 10
302.3758313240857
 20
702.6046984056653
 30
0.0
 10
301.5761230478466
 20
702.6222263433962
 30
0.0
 10
300.7050563095994
 20
702.6417903963165
 30
0.0
 10
299.8125167304287
 20
702.6623122301281
 30
0.0
 10
298.911115141823
 20
702.6834485018856
 30
0.0
 10
297.926943046102
 20
702.7069920268507
 30
0.0
 10
296.7956253113632
 20
702.7346420889616
 30
0.0
 10
295.5134484805779
 20
702.7666363501346
 30
0.0
 10
294.1036634395771
 20
702.8026104243165
 30
0.0
 10
292.537289474056
 20
702.8433580562744
 30
0.0
 10
291.2751395689702
 20
702.8769027301944
 30
0.0
 10
290.0063444928504
 20
702.9110212332372
 30
0.0
 10
288.0491728366173
 20
702.964249182315
 30
0.0
 10
285.3205060698481
 20
703.0398601807135
 30
0.0
 10
281.8348120727147
 20
703.138175243393
 30
0.0
 10
278.0694758686486
 20
703.2455258191533
 30
0.0
 10
274.2869377142479
 20
703.3536390992012
 30
0.0
 10
271.038511102048
 20
703.4460377422918
 30
0.0
 10
268.3077644772102
 20
703.52305911828
 30
0.0
 10
265.9394915394583
 20
703.5892924717084
 30
0.0
 10
263.531946821359
 20
703.6558578222558
 30
0.0
 10
261.2594681526487
 20
703.7178470427641
 30
0.0
 10
259.3112626696919
 20
703.7702801361941
 30
0.0
 10
257.655056765904
 20
703.8143050552987
 30
0.0
 10
256.2439596761804
 20
703.8513922391519
 30
0.0
 10
254.9951567516064
 20
703.8838707394266
 30
0.0
 10
253.7249491112529
 20
703.9165881077231
 30
0.0
 10
252.2041271852769
 20
703.9553111073756
 30
0.0
 10
250.2184621481458
 20
704.0050600354632
 30
0.0
 10
247.706704096793
 20
704.0665714114293
 30
0.0
 10
244.6660803119666
 20
704.1388527392647
 30
0.0
 10
241.0525206795137
 20
704.2214252861913
 30
0.0
 10
236.8770046795904
 20
704.3122190071913
 30
0.0
 10
232.1303639249045
 20
704.4088284797955
 30
0.0
 10
228.713393983923
 20
704.4729522777501
 30
0.0
 10
226.8903140735599
 20
704.5053727049553
 30
0.0
 10
226.8405922171732
 20
704.5062556083334
 30
0.0
  0
ARC
  5
D1
330
95
100
AcDbEntity
  8
visible
  6
Continuous
 62
     5
100
AcDbCircle
 10
-37.1305610564
 20
948.0337884243
 30
0.0
 40
250.5270142026772
100
AcDbArc
 50
282.6620135003
 51
283.6109299367
  0
SPLINE
  5
D2
330
95
100
AcDbEntity
  8
visible
  6
Continuous
 62
     5
100
AcDbSpline
210
0.0
220
0.0
230
1.0
 70
     8
 71
     3
 72
     8
 73
     4
 74
     0
 42
0.000000001
 43
0.0000000001
 40
0.8656300395940684
 40
0.8656300395940684
 40
0.8656300395940684
 40
0.8656300395940684
 40
1.0
 40
1.0
 40
1.0
 40
1.0
 10
296.105465523879
 20
689.037705188846
 30
0.0
 10
296.1712982727766
 20
689.0322371220523
 30
0.0
 10
296.2380912895067
 20
689.0317312774108
 30
0.0
 10
296.3133438985646
 20
689.0325098821592
 30
0.0
  0
ARC
  5
D3
330
95
100
AcDbEntity
  8
visible
  6
Continuous
 62
     5
100
AcDbCircle
 10
329.3566033713
 20
1074.0998546661
 30
0.0
 40
385.0674024935065
100
AcDbArc
 50
269.9302037028
 51
270.0140739833
  0
SPLINE
  5
D4
330
95
100
AcDbEntity
  8
visible
  6
Continuous
 62
     5
100
AcDbSpline
210
0.0
220
0.0
230
1.0
 70
     8
 71
     3
 72
    82
 73
    78
 74
     0
 42
0.000000001
 43
0.0000000001
 40
0.1529969156005327
 40
0.1529969156005327
 40
0.1529969156005327
 40
0.1529969156005327
 40
0.1721769345731745
 40
0.192209087509949
 40
0.2103221967956286
 40
0.2261118512402618
 40
0.2399577748339131
 40
0.2512857856236519
 40
0.2602573947174047
 40
0.2671619408490743
 40
0.272209109861627
 40
0.2783436967294269
 40
0.2861219930856773
 40
0.2936293720941645
 40
0.3021493377285592
 40
0.3120222339887499
 40
0.3233729328986096
 40
0.3344244137616834
 40
0.3439750584459141
 40
0.352162394335343
 40
0.3602324652807773
 40
0.3693081428867426
 40
0.3789244344999834
 40
0.390760772994778
 40
0.4030468928495414
 40
0.4142790257221258
 40
0.4215585768344939
 40
0.4286428510893617
 40
0.4372320155250871
 40
0.4466383859631855
 40
0.4540849383055385
 40
0.4592829796124989
 40
0.4651729065576024
 40
0.4713184513181237
 40
0.4758341407302107
 40
0.4802788293878407
 40
0.4864414028014903
 40
0.4920284017329848
 40
0.4969490913526862
 40
0.5032291310568575
 40
0.5088816939209186
 40
0.5136743795635001
 40
0.5195684252138254
 40
0.5253202079875402
 40
0.5329710825362381
 40
0.5426905098212267
 40
0.5537730500535875
 40
0.5641654164189991
 40
0.5734995010579819
 40
0.5801752452272169
 40
0.5873960509994279
 40
0.595613514151024
 40
0.6024559291467787
 40
0.6078311029996195
 40
0.6130231091180427
 40
0.6204690104601615
 40
0.6307847566891271
 40
0.6407508388973197
 40
0.6480306653604175
 40
0.65614794059347
 40
0.6652677036614066
 40
0.6738342139437297
 40
0.6807635609025956
 40
0.6881715502835818
 40
0.6970360506980273
 40
0.7073707886102627
 40
0.7161492141456514
 40
0.725477448682768
 40
0.7393772625118873
 40
0.754721690213501
 40
0.7707411243240608
 40
0.7855562590344518
 40
0.7978929973082569
 40
0.8086073489897838
 40
0.8204683911988332
 40
0.833054569015475
 40
0.8335650994025263
 40
0.8335650994025263
 40
0.8335650994025263
 40
0.8335650994025263
 10
149.1491530721788
 20
704.5060268910265
 30
0.0
 10
147.5972212007989
 20
704.4784533687913
 30
0.0
 10
144.4578759701353
 20
704.4200538848091
 30
0.0
 10
139.9392149666616
 20
704.3292257243654
 30
0.0
 10
135.7798795051116
 20
704.2398081752949
 30
0.0
 10
132.1616195327826
 20
704.157977677689
 30
0.0
 10
129.1114497908239
 20
704.0861357548109
 30
0.0
 10
126.6038362666755
 20
704.0252394743965
 30
0.0
 10
124.626313730504
 20
703.9760923443232
 30
0.0
 10
123.1157098932508
 20
703.9379234337059
 30
0.0
 10
121.8060552279589
 20
703.9044345619075
 30
0.0
 10
120.4273680796
 20
703.868808194957
 30
0.0
 10
118.8812631011602
 20
703.8283551836159
 30
0.0
 10
117.1744413058859
 20
703.7831318365199
 30
0.0
 10
115.327632565921
 20
703.7335946564066
 30
0.0
 10
113.2253761523717
 20
703.676479180854
 30
0.0
 10
110.9713866863909
 20
703.6144385351836
 30
0.0
 10
108.7696328864941
 20
703.553128740096
 30
0.0
 10
106.8084876270684
 20
703.4980387890866
 30
0.0
 10
105.064179363027
 20
703.4487399032761
 30
0.0
 10
103.3612277356015
 20
703.40039536547
 30
0.0
 10
101.5782450872009
 20
703.3496035353438
 30
0.0
 10
99.56609426045108
 20
703.292157676383
 30
0.0
 10
97.36701819098978
 20
703.2293407310691
 30
0.0
 10
95.0873364233187
 20
703.1643675442166
 30
0.0
 10
93.12861122564485
 20
703.108836068951
 30
0.0
 10
91.52064124774746
 20
703.0635439314585
 30
0.0
 10
90.08946700715569
 20
703.0234845405024
 30
0.0
 10
88.53679080191732
 20
702.9803836541822
 30
0.0
 10
86.98140141501466
 20
702.9377046840355
 30
0.0
 10
85.64799367635865
 20
702.9015903336987
 30
0.0
 10
84.53511839652677
 20
702.8717842909447
 30
0.0
 10
83.50961387610431
 20
702.8446128193088
 30
0.0
 10
82.53436344693696
 20
702.8191013246343
 30
0.0
 10
81.64771590104765
 20
702.7961950815677
 30
0.0
 10
80.76130414840256
 20
702.7735526547943
 30
0.0
 10
79.82683612051888
 20
702.7500227146228
 30
0.0
 10
78.87148902846755
 20
702.7263742579402
 30
0.0
 10
77.91393434076026
 20
702.7030652457037
 30
0.0
 10
76.97003471310025
 20
702.6805208854918
 30
0.0
 10
76.03697574494149
 20
702.6587157318027
 30
0.0
 10
75.12514918573049
 20
702.6378487555052
 30
0.0
 10
74.22405624858148
 20
702.6176932160845
 30
0.0
 10
73.17667559723029
 20
702.5948814973376
 30
0.0
 10
71.93928577512331
 20
702.5688133963208
 30
0.0
 10
70.43825993054114
 20
702.538667159095
 30
0.0
 10
68.83468308579546
 20
702.5084943700156
 30
0.0
 10
67.28536374179465
 20
702.4815118443044
 30
0.0
 10
65.97972933772628
 20
702.4605894473563
 30
0.0
 10
64.85657924144063
 20
702.4439332632796
 30
0.0
 10
63.81190578727072
 20
702.4295634717557
 30
0.0
 10
62.77743444945791
 20
702.4166175837347
 30
0.0
 10
61.84684837236495
 20
702.4061542238511
 30
0.0
 10
61.07065885759119
 20
702.3982530140509
 30
0.0
 10
60.2814470062428
 20
702.3909608700905
 30
0.0
 10
59.29447771094431
 20
702.3829947494002
 30
0.0
 10
58.14525407031548
 20
702.3756488598256
 30
0.0
 10
57.0323660782337
 20
702.3707620460369
 30
0.0
 10
56.04365049375706
 20
702.368185263189
 30
0.0
 10
55.13150260012259
 20
702.3672890583415
 30
0.0
 10
54.20581834259266
 20
702.3680853320174
 30
0.0
 10
53.35214008525163
 20
702.3705010630497
 30
0.0
 10
52.59263770708683
 20
702.3739967685568
 30
0.0
 10
51.86161254803118
 20
702.3785603484278
 30
0.0
 10
51.04975837599657
 20
702.385185729283
 30
0.0
 10
50.23645953452308
 20
702.3937230748259
 30
0.0
 10
49.45887437086985
 20
702.4037686881135
 30
0.0
 10
48.66902910917759
 20
702.4157636227861
 30
0.0
 10
47.8084487447373
 20
702.4313637192439
 30
0.0
 10
46.92719507484247
 20
702.4506256469463
 30
0.0
 10
46.17517028406182
 20
702.4701273590725
 30
0.0
 10
45.5944594027482
 20
702.4874906676657
 30
0.0
 10
45.17462307587073
 20
702.5016513226408
 30
0.0
 10
44.9063402319354
 20
702.5115933373213
 30
0.0
 10
44.74931621191836
 20
702.5178594700687
 30
0.0
 10
44.70322175846589
 20
702.5198566691924
 30
0.0
 10
44.70266953129848
 20
702.5198409122654
 30
0.0
 10
44.7026837349144
 20
702.5198386818284
 30
0.0
  0
SPLINE
  5
D5
330
95
100
AcDbEntity
  8
visible
  6
Continuous
 62
     5
100
AcDbSpline
210
0.0
220
0.0
230
1.0
 70
     8
 71
     3
 72
    11
 73
     7
 74
     0
 42
0.000000001
 43
0.0000000001
 40
0.0
 40
0.0
 40
0.0
 40
0.0
 40
0.2070739596074185
 40
0.3934168288466193
 40
0.4905232558221
 40
0.4940902748697289
 40
0.4940902748697289
 40
0.4940902748697289
 40
0.4940902748697289
 10
79.52123385833002
 20
689.0325131724592
 30
0.0
 10
79.5652128802172
 20
689.0323538979718
 30
0.0
 10
79.6416197470709
 20
689.0327740379082
 30
0.0
 10
79.7669805080277
 20
689.032070117663
 30
0.0
 10
79.8830043662013
 20
689.0366001106545
 30
0.0
 10
79.93456604353815
 20
689.0419463958539
 30
0.0
 10
79.9364066433256
 20
689.0421409585546
 30
0.0
  0
SPLINE
  5
D6
330
95
100
AcDbEntity
  8
visible
  6
Continuous
 62
     5
100
AcDbSpline
210
0.0
220
0.0
230
1.0
 70
     8
 71
     6
 72
    14
 73
     7
 74
     0
 42
0.000000001
 43
0.0000000001
 40
0.7301377504776587
 40
0.7301377504776587
 40
0.7301377504776587
 40
0.7301377504776587
 40
0.7301377504776587
 40
0.7301377504776587
 40
0.7301377504776587
 40
0.7309836472980351
 40
0.7309836472980351
 40
0.7309836472980351
 40
0.7309836472980351
 40
0.7309836472980351
 40
0.7309836472980351
 40
0.7309836472980351
 10
87.16489678820899
 20
732.6219036128401
 30
0.0
 10
87.17767999991379
 20
732.6230516020787
 30
0.0
 10
87.19046801688627
 20
732.6241994824469
 30
0.0
 10
87.20326084018599
 20
732.6253472535653
 30
0.0
 10
87.21605847087253
 20
732.6264949150545
 30
0.0
 10
87.22886091000544
 20
732.6276424665346
 30
0.0
 10
87.24166815864432
 20
732.6287899076251
 30
0.0
  0
LINE
  5
D7
330
95
100
AcDbEntity
  8
visible
  6
Continuous
 62
     5
100
AcDbLine
 10
188.0021728876
 20
704.5058079374
 30
0.0
 11
7.3107165596
 21
704.5058079354
 31
0.0
  0
LINE
  5
D8
330
95
100
AcDbEntity
  8
visible
  6
Continuous
 62
     5
100
AcDbLine
 10
368.6943038394
 20
704.5058079346
 30
0.0
 11
188.0021728876
 21
704.5058079374
 31
0.0
  0
SPLINE
  5
D9
330
95
100
AcDbEntity
  8
visible
  6
Continuous
 62
     5
100
AcDbSpline
210
0.0
220
0.0
230
1.0
 70
     8
 71
     3
 72
     8
 73
     4
 74
     0
 42
0.000000001
 43
0.0000000001
 40
0.6643640027273077
 40
0.6643640027273077
 40
0.6643640027273077
 40
0.6643640027273077
 40
0.6660041738658582
 40
0.6660041738658582
 40
0.6660041738658582
 40
0.6660041738658582
 10
288.8394617884526
 20
732.6227535984837
 30
0.0
 10
288.7958196515982
 20
732.6266753107982
 30
0.0
 10
288.7521277177999
 20
732.6305935394658
 30
0.0
 10
288.7083860452403
 20
732.6345082520864
 30
0.0
  0
SPLINE
  5
DA
330
95
100
AcDbEntity
  8
visible
  6
Continuous
 62
     5
100
AcDbSpline
210
0.0
220
0.0
230
1.0
 70
     8
 71
     3
 72
    92
 73
    88
 74
     0
 42
0.000000001
 43
0.0000000001
 40
0.0
 40
0.0
 40
0.0
 40
0.0
 40
0.0089890498021332
 40
0.0177084308514703
 40
0.0264205983740677
 40
0.035069050506835
 40
0.0437691377883261
 40
0.0517420964730898
 40
0.0589050773540571
 40
0.0654588785359876
 40
0.0751283455828564
 40
0.085725939496172
 40
0.0974744393060272
 40
0.1103481162287858
 40
0.124125812719952
 40
0.1365131509790848
 40
0.148709739508308
 40
0.1594368709500685
 40
0.1686191003779473
 40
0.1776332698867782
 40
0.1875906522886387
 40
0.2048148618874901
 40
0.2227479074407819
 40
0.239909185639715
 40
0.2570894500023975
 40
0.2732260375461258
 40
0.2889321473868926
 40
0.3060053843484181
 40
0.3245970707525474
 40
0.3534974559401692
 40
0.3819897928649625
 40
0.4098456066991986
 40
0.4369292974894319
 40
0.4631703050197476
 40
0.4888880720981544
 40
0.4985038846249742
 40
0.5084837015595406
 40
0.5189521857583637
 40
0.5305296143376121
 40
0.5430751710289822
 40
0.5539758194057013
 40
0.5628602069055076
 40
0.5708325081180946
 40
0.580119476095072
 40
0.5894115590047303
 40
0.5990797889400938
 40
0.6089938488640937
 40
0.6178719223470261
 40
0.6252672532234546
 40
0.6329185676895036
 40
0.6427822549191441
 40
0.654086485125131
 40
0.6650683404180849
 40
0.6739828106592564
 40
0.6813501623706869
 40
0.6891868737498159
 40
0.6981231394011477
 40
0.7072321269357936
 40
0.7153678208635914
 40
0.7243557553218796
 40
0.7352561292552372
 40
0.7477381354997167
 40
0.7594645260137711
 40
0.7699629452064621
 40
0.7798642867565162
 40
0.7911788069713707
 40
0.8051300654247526
 40
0.8190016837580946
 40
0.8310226200229266
 40
0.841236111705163
 40
0.8553589108205745
 40
0.8702373393121238
 40
0.8859558968886535
 40
0.8932455709035925
 40
0.9011786418052451
 40
0.9097436756220315
 40
0.9189281790672867
 40
0.9282732721816632
 40
0.9363815283719682
 40
0.9432191676527295
 40
0.9478414717818459
 40
0.9532005843595852
 40
0.9598681493552166
 40
0.9678797001335169
 40
0.9772444603575785
 40
0.9879565482523661
 40
1.0
 40
1.0
 40
1.0
 40
1.0
 10
87.16403987018975
 20
732.6218266567807
 30
0.0
 10
86.7389836188675
 20
732.5835829809031
 30
0.0
 10
86.01986133497356
 20
732.5187505367197
 30
0.0
 10
84.68935918790753
 20
732.3967023307868
 30
0.0
 10
83.38361988062223
 20
732.2744760658272
 30
0.0
 10
82.0829748605939
 20
732.1500413361545
 30
0.0
 10
80.87701662302602
 20
732.0320030155576
 30
0.0
 10
79.770829296204
 20
731.9213242631719
 30
0.0
 10
78.81738163043948
 20
731.8240060324464
 30
0.0
 10
77.82607449161868
 20
731.7210356057799
 30
0.0
 10
76.74883146954781
 20
731.6068175714948
 30
0.0
 10
75.52522585926317
 20
731.4738686414803
 30
0.0
 10
74.23692306337962
 20
731.3301546819008
 30
0.0
 10
72.89469957584444
 20
731.176145426851
 30
0.0
 10
71.58724755345376
 20
731.0216237979794
 30
0.0
 10
70.35110784546563
 20
730.8713627684557
 30
0.0
 10
69.24885653857108
 20
730.733881276045
 30
0.0
 10
68.26849149540284
 20
730.6086843499278
 30
0.0
 10
67.40725455337557
 20
730.4964551811318
 30
0.0
 10
66.59230330059707
 20
730.3883286465915
 30
0.0
 10
65.55969776609768
 20
730.2487698870107
 30
0.0
 10
64.30156842833287
 20
730.0741927226248
 30
0.0
 10
62.88413954148533
 20
729.8708559137165
 30
0.0
 10
61.50394869981079
 20
729.6662984700196
 30
0.0
 10
60.20228263855415
 20
729.4672143732636
 30
0.0
 10
58.96363598526394
 20
729.2719710634846
 30
0.0
 10
57.74969719206091
 20
729.0750760842097
 30
0.0
 10
56.49573244116029
 20
728.8656559172941
 30
0.0
 10
54.945221836463
 20
728.5983749512286
 30
0.0
 10
53.1564560793509
 20
728.2767789746305
 30
0.0
 10
51.1889758247416
 20
727.9045788388343
 30
0.0
 10
49.29472649500102
 20
727.5277283623817
 30
0.0
 10
47.47565125066119
 20
727.1474078592496
 30
0.0
 10
45.72382435069644
 20
726.7628166714162
 30
0.0
 10
44.36892268955134
 20
726.4505995555841
 30
0.0
 10
43.38001897292764
 20
726.2149399425592
 30
0.0
 10
42.71838810475906
 20
726.0543096579607
 30
0.0
 10
42.00387500046454
 20
725.8773181425483
 30
0.0
 10
41.24954445447132
 20
725.6863455094302
 30
0.0
 10
40.50114220388134
 20
725.492413150962
 30
0.0
 10
39.81476303850559
 20
725.3104840578758
 30
0.0
 10
39.2267997852162
 20
725.1516211662705
 30
0.0
 10
38.66891005800838
 20
724.9983740876701
 30
0.0
 10
38.09969000011332
 20
724.8393108657432
 30
0.0
 10
37.49528998986176
 20
724.6672406565494
 30
0.0
 10
36.88263335581643
 20
724.4894709370058
 30
0.0
 10
36.28415464753301
 20
724.3123862547368
 30
0.0
 10
35.73590356058492
 20
724.1470944634196
 30
0.0
 10
35.23446767332114
 20
723.993434832835
 30
0.0
 10
34.70953581806746
 20
723.8301098276638
 30
0.0
 10
34.1052050556615
 20
723.6387062293994
 30
0.0
 10
33.43664991418918
 20
723.4223689367525
 30
0.0
 10
32.79801481060265
 20
723.2110308415017
 30
0.0
 10
32.24790648878486
 20
723.025354673351
 30
0.0
 10
31.76859277290542
 20
722.8609776935683
 30
0.0
 10
31.28697703872543
 20
722.6933438654676
 30
0.0
 10
30.77150938370218
 20
722.5109459087096
 30
0.0
 10
30.25259953587747
 20
722.3240449590816
 30
0.0
 10
29.74086562707404
 20
722.1366146002325
 30
0.0
 10
29.19802037485625
 20
721.934500251239
 30
0.0
 10
28.57363591181628
 20
721.6975599102532
 30
0.0
 10
27.90346229143348
 20
721.4375082401236
 30
0.0
 10
27.25337198028155
 20
721.1794574024641
 30
0.0
 10
26.66185941702162
 20
720.9398032155938
 30
0.0
 10
26.08986281001841
 20
720.703753930427
 30
0.0
 10
25.46026025913023
 20
720.4389856757861
 30
0.0
 10
24.76746128305071
 20
720.1410448030365
 30
0.0
 10
24.07478307042593
 20
719.8358383354296
 30
0.0
 10
23.45697931959304
 20
719.5575058492869
 30
0.0
 10
22.8434600096856
 20
719.275832424992
 30
0.0
 10
22.18528353566449
 20
718.9674208110097
 30
0.0
 10
21.42503182955111
 20
718.6021818223375
 30
0.0
 10
20.78535677392718
 20
718.2865176718271
 30
0.0
 10
20.25716880406825
 20
718.0204056663957
 30
0.0
 10
19.8452399338494
 20
717.8099027359284
 30
0.0
 10
19.39876461060216
 20
717.5781316881256
 30
0.0
 10
18.92730577968848
 20
717.3290108940012
 30
0.0
 10
18.46719335894889
 20
717.0815592119172
 30
0.0
 10
17.97189654307252
 20
716.8096785264846
 30
0.0
 10
17.51859701179067
 20
716.555831401196
 30
0.0
 10
17.02705368056584
 20
716.2737240916878
 30
0.0
 10
16.62517503003647
 20
716.0384447223876
 30
0.0
 10
16.22702088145151
 20
715.8015443271431
 30
0.0
 10
15.81553303183009
 20
715.5522210295691
 30
0.0
 10
15.39866909980098
 20
715.294572423132
 30
0.0
 10
14.96632078278448
 20
715.0213156231235
 30
0.0
 10
14.72229613737033
 20
714.8619837893289
 30
0.0
 10
14.57072563727063
 20
714.76274336179
 30
0.0
  0
ARC
  5
DB
330
95
100
AcDbEntity
  8
visible
  6
Continuous
 62
     5
100
AcDbCircle
 10
187.1550874614
 20
-339.1132521386
 30
0.0
 40
1076.389946100834
100
AcDbArc
 50
89.954909998
 51
95.3249667265
  0
SPLINE
  5
DC
330
95
100
AcDbEntity
  8
visible
  6
Continuous
 62
     5
100
AcDbSpline
210
0.0
220
0.0
230
1.0
 70
     8
 71
     3
 72
    21
 73
    17
 74
     0
 42
0.000000001
 43
0.0000000001
 40
0.0
 40
0.0
 40
0.0
 40
0.0
 40
0.1322015052299723
 40
0.251716032384307
 40
0.3585109094342188
 40
0.4531496673257581
 40
0.5362703863091384
 40
0.6085920425117746
 40
0.6709339106521411
 40
0.7242602857837931
 40
0.7698538096183284
 40
0.8094444531852873
 40
0.8447736861111972
 40
0.8773904377125318
 40
0.9389030397669488
 40
1.0
 40
1.0
 40
1.0
 40
1.0
 10
14.94908871448411
 20
715.0088149425073
 30
0.0
 10
14.536713016427
 20
714.7404798517762
 30
0.0
 10
13.87528281845696
 20
714.306549756256
 30
0.0
 10
12.8295399236254
 20
713.5580697268298
 30
0.0
 10
11.90379686766815
 20
712.8384199947905
 30
0.0
 10
11.07080105683739
 20
712.1287945540087
 30
0.0
 10
10.33525642191191
 20
711.4345040247514
 30
0.0
 10
9.693473347580694
 20
710.7547467836906
 30
0.0
 10
9.142632898770293
 20
710.0894683238781
 30
0.0
 10
8.678047037738
 20
709.4370326086298
 30
0.0
 10
8.293944112331475
 20
708.7933722798089
 30
0.0
 10
7.986959522906734
 20
708.1596190522198
 30
0.0
 10
7.751657390496714
 20
707.5344189112976
 30
0.0
 10
7.527400197467809
 20
706.7343111825028
 30
0.0
 10
7.373262235949973
 20
705.696943989433
 30
0.0
 10
7.330738677082394
 20
704.9486450409072
 30
0.0
 10
7.31081735395675
 20
704.5058079345728
 30
0.0
  0
ARC
  5
DD
330
95
100
AcDbEntity
  8
visible
  6
Continuous
 62
     5
100
AcDbCircle
 10
188.7277191605
 20
-341.677161822
 30
0.0
 40
1078.953766417337
100
AcDbArc
 50
84.6840875498
 51
90.0385287523
  0
SPLINE
  5
DE
330
95
100
AcDbEntity
  8
visible
  6
Continuous
 62
     5
100
AcDbSpline
210
0.0
220
0.0
230
1.0
 70
     8
 71
     3
 72
    21
 73
    17
 74
     0
 42
0.000000001
 43
0.0000000001
 40
0.0
 40
0.0
 40
0.0
 40
0.0
 40
0.061096960233052
 40
0.122609562287468
 40
0.1552263138888034
 40
0.190555546814714
 40
0.2301461903816711
 40
0.275739714216209
 40
0.3290660893478621
 40
0.3914079574882272
 40
0.46372961369087
 40
0.5468503326742541
 40
0.6414890905657873
 40
0.7482839676156905
 40
0.867798494770021
 40
1.0
 40
1.0
 40
1.0
 40
1.0
 10
368.6935284211532
 20
704.5058079345727
 30
0.0
 10
368.6736070980276
 20
704.9486450409072
 30
0.0
 10
368.6310835391596
 20
705.696943989433
 30
0.0
 10
368.4769455776423
 20
706.7343111825027
 30
0.0
 10
368.2526883846134
 20
707.5344189112976
 30
0.0
 10
368.017386252203
 20
708.1596190522197
 30
0.0
 10
367.7104016627787
 20
708.7933722798089
 30
0.0
 10
367.3262987373718
 20
709.4370326086298
 30
0.0
 10
366.8617128763398
 20
710.089468323878
 30
0.0
 10
366.3108724275294
 20
710.7547467836906
 30
0.0
 10
365.6690893531978
 20
711.4345040247513
 30
0.0
 10
364.9335447182728
 20
712.1287945540087
 30
0.0
 10
364.1005489074415
 20
712.8384199947903
 30
0.0
 10
363.1748058514846
 20
713.5580697268297
 30
0.0
 10
362.1290629566532
 20
714.306549756256
 30
0.0
 10
361.467632758683
 20
714.7404798517762
 30
0.0
 10
361.0552570606258
 20
715.0088149425072
 30
0.0
  0
SPLINE
  5
DF
330
95
100
AcDbEntity
  8
visible
  6
Continuous
 62
     5
100
AcDbSpline
210
0.0
220
0.0
230
1.0
 70
     8
 71
     3
 72
   100
 73
    96
 74
     0
 42
0.000000001
 43
0.0000000001
 40
0.0
 40
0.0
 40
0.0
 40
0.0
 40
0.0135273819189753
 40
0.0253473864348798
 40
0.0354395022757803
 40
0.0438015184752053
 40
0.0491760382243125
 40
0.0535386757723891
 40
0.0577357730753916
 40
0.0625119331555489
 40
0.0704054267477149
 40
0.0795970335917988
 40
0.0888565530867961
 40
0.0975013417540802
 40
0.1055188322441554
 40
0.1162756702192259
 40
0.126299554710115
 40
0.1359871379407712
 40
0.1453306590699023
 40
0.1543226309284934
 40
0.1636846617660912
 40
0.1709571897404935
 40
0.1790489807211327
 40
0.1879731720335643
 40
0.1977272243872591
 40
0.2070711679022892
 40
0.2150825235734852
 40
0.2219194483102919
 40
0.2284133092943529
 40
0.2354941726913122
 40
0.2447012450157291
 40
0.2547679801296862
 40
0.2651479799642923
 40
0.2743096495668943
 40
0.2821434501396944
 40
0.2891662355504135
 40
0.2976379444414892
 40
0.3066193280557475
 40
0.3149576087147706
 40
0.322584559816685
 40
0.3307459631802146
 40
0.3410379318553959
 40
0.3535020572869976
 40
0.3629298454621699
 40
0.3706562156817071
 40
0.3768790600723053
 40
0.3837132797403887
 40
0.3921082825198921
 40
0.4012677414204319
 40
0.4101820388651183
 40
0.4199240950193786
 40
0.4286467890919
 40
0.4361701786605293
 40
0.4441867011021347
 40
0.4539615894769547
 40
0.4653750316774421
 40
0.4782870433885717
 40
0.4898272883260915
 40
0.5006849032367787
 40
0.5111113964576832
 40
0.5372985585492319
 40
0.5640405411142652
 40
0.5916540890861551
 40
0.6200622600401103
 40
0.6491176684640562
 40
0.6683797680200337
 40
0.6873111664508791
 40
0.7048219304629164
 40
0.7207875484041589
 40
0.7364772015093096
 40
0.7530529833646743
 40
0.7665470699410962
 40
0.7806860528223597
 40
0.7952921803987749
 40
0.8093627364261913
 40
0.8222588308403576
 40
0.8298020927794737
 40
0.8373686984475012
 40
0.8456110010175217
 40
0.8552650894175068
 40
0.8655210795924345
 40
0.8758742657413867
 40
0.8896519535234364
 40
0.9025256223085546
 40
0.9142741146920172
 40
0.9248717019064582
 40
0.9345411628411028
 40
0.9410949598802649
 40
0.9482579362333992
 40
0.9562308898783397
 40
0.9649309716604177
 40
0.9735794183264506
 40
0.9822915803420583
 40
0.9910109558798593
 40
1.0
 40
1.0
 40
1.0
 40
1.0
 10
361.43362013784
 20
714.7627433617894
 30
0.0
 10
361.2630517853358
 20
714.8743391406053
 30
0.0
 10
360.9900783331693
 20
715.0523566094195
 30
0.0
 10
360.5025171731898
 20
715.3590936258581
 30
0.0
 10
360.0354085277647
 20
715.6459502764341
 30
0.0
 10
359.5982403784256
 20
715.908648955111
 30
0.0
 10
359.2114614219674
 20
716.136961456492
 30
0.0
 10
358.8347711064309
 20
716.3559702241146
 30
0.0
 10
358.4631073221482
 20
716.5681198218167
 30
0.0
 10
358.0665695627268
 20
716.7905972080307
 30
0.0
 10
357.6113273443813
 20
717.0411969194192
 30
0.0
 10
357.1478638078839
 20
717.2912046588671
 30
0.0
 10
356.6790454945406
 20
717.539608663642
 30
0.0
 10
356.2277086216794
 20
717.7745385250278
 30
0.0
 10
355.7523303314404
 20
718.0180441186861
 30
0.0
 10
355.2618272138607
 20
718.264924310573
 30
0.0
 10
354.7463898882685
 20
718.5195919713577
 30
0.0
 10
354.2531305501328
 20
718.7591073990981
 30
0.0
 10
353.7784175944371
 20
718.9858239214581
 30
0.0
 10
353.3116576829624
 20
719.2052578857715
 30
0.0
 10
352.8817779981032
 20
719.4042430780088
 30
0.0
 10
352.4623054358227
 20
719.5957032407421
 30
0.0
 10
352.0468197757152
 20
719.7828759618452
 30
0.0
 10
351.5839905936341
 20
719.9883601434508
 30
0.0
 10
351.0935813014846
 20
720.2025987803688
 30
0.0
 10
350.6136852505269
 20
720.4087714050352
 30
0.0
 10
350.1815712089601
 20
720.5915900096885
 30
0.0
 10
349.7987964594914
 20
720.7514118554029
 30
0.0
 10
349.4302944471239
 20
720.9034588591721
 30
0.0
 10
349.0133403105023
 20
721.0734078360016
 30
0.0
 10
348.524597150038
 20
721.269678210662
 30
0.0
 10
347.9660988667655
 20
721.4899951240815
 30
0.0
 10
347.4000296597987
 20
721.7090388353271
 30
0.0
 10
346.8724805310158
 20
721.9094128954257
 30
0.0
 10
346.4070201576916
 20
722.0833501100816
 30
0.0
 10
345.9540373697624
 20
722.2502329665566
 30
0.0
 10
345.4721731678394
 20
722.4251256974869
 30
0.0
 10
344.9588728920994
 20
722.6082692003303
 30
0.0
 10
344.4614765187568
 20
722.7827404741596
 30
0.0
 10
343.9813155076281
 20
722.9485547211201
 30
0.0
 10
343.459708101045
 20
723.1259297888137
 30
0.0
 10
342.8304615847238
 20
723.3360532558264
 30
0.0
 10
342.1651278543512
 20
723.5532222292906
 30
0.0
 10
341.5455321382651
 20
723.7510333195571
 30
0.0
 10
341.0539354860232
 20
723.9052711008972
 30
0.0
 10
340.6164442642172
 20
724.040604988789
 30
0.0
 10
340.1673126583327
 20
724.1777232380092
 30
0.0
 10
339.6564656535786
 20
724.3313267023971
 30
0.0
 10
339.0994976241135
 20
724.4958904387764
 30
0.0
 10
338.5093321028435
 20
724.6671440709893
 30
0.0
 10
337.923532487319
 20
724.8339786929923
 30
0.0
 10
337.3664865634588
 20
724.9897156984822
 30
0.0
 10
336.8482724584473
 20
725.1322749405832
 30
0.0
 10
336.3118146289432
 20
725.2776200256749
 30
0.0
 10
335.6920909314365
 20
725.4426476177803
 30
0.0
 10
334.9659490210234
 20
725.6320937525375
 30
0.0
 10
334.1891655637907
 20
725.8300715449185
 30
0.0
 10
333.4030164918231
 20
726.0256676050737
 30
0.0
 10
332.678603990397
 20
726.2019620550703
 30
0.0
 10
331.6431721730374
 20
726.4488930018159
 30
0.0
 10
330.2487679444578
 20
726.7700726610062
 30
0.0
 10
328.4633200080428
 20
727.16151742831
 30
0.0
 10
326.6077588075566
 20
727.5485934170545
 30
0.0
 10
324.6743249539977
 20
727.9320100939613
 30
0.0
 10
322.9010603077267
 20
728.2660805929838
 30
0.0
 10
321.3198638108583
 20
728.5514794934763
 30
0.0
 10
319.9901862810339
 20
728.7834930372871
 30
0.0
 10
318.7187009999993
 20
728.9982945009518
 30
0.0
 10
317.5064079648886
 20
729.1970835964133
 30
0.0
 10
316.2960571927587
 20
729.3900080555918
 30
0.0
 10
315.12659889189
 20
729.5710703877468
 30
0.0
 10
313.9736203217926
 20
729.7447564331201
 30
0.0
 10
312.8499260264965
 20
729.9097755030778
 30
0.0
 10
311.6867137382877
 20
730.0760786075324
 30
0.0
 10
310.5310352497727
 20
730.2368817627539
 30
0.0
 10
309.5492828094494
 20
730.3699840022703
 30
0.0
 10
308.7390259434416
 20
730.4776636576167
 30
0.0
 10
308.048580748146
 20
730.5680634178769
 30
0.0
 10
307.2787238393387
 20
730.6672664628375
 30
0.0
 10
306.412931214005
 20
730.776812289378
 30
0.0
 10
305.459913143701
 20
730.8949357022753
 30
0.0
 10
304.3491607638877
 20
731.0296520596579
 30
0.0
 10
303.1095936557347
 20
731.1761519010855
 30
0.0
 10
301.7674351063682
 20
731.3301531546743
 30
0.0
 10
300.479117059061
 20
731.4738689934824
 30
0.0
 10
299.2555149748194
 20
731.6068174890296
 30
0.0
 10
298.1782711722213
 20
731.7210356194886
 30
0.0
 10
297.1869641719358
 20
731.8240060290855
 30
0.0
 10
296.2335164703202
 20
731.9213242642286
 30
0.0
 10
295.1273291546765
 20
732.0320030152371
 30
0.0
 10
293.9213709137626
 20
732.1500413362465
 30
0.0
 10
292.6207258946656
 20
732.2744760658046
 30
0.0
 10
291.3149865871385
 20
732.3967023307944
 30
0.0
 10
289.9844844401464
 20
732.5187505367184
 30
0.0
 10
289.2653621562404
 20
732.5835829809033
 30
0.0
 10
288.8403059049202
 20
732.6218266567806
 30
0.0
  0
LINE
  5
E0
330
95
100
AcDbEntity
  8
visible
  6
Continuous
 62
     5
100
AcDbLine
 10
114.8661825494
 20
627.3330735434
 30
0.0
 11
110.0661825494
 21
627.3330735434
 31
0.0
  0
LINE
  5
E1
330
95
100
AcDbEntity
  8
visible
  6
Continuous
 62
     5
100
AcDbLine
 10
109.4661825494
 20
627.9330735434
 30
0.0
 11
115.4661825494
 21
627.9330735434
 31
0.0
  0
LINE
  5
E2
330
95
100
AcDbEntity
  8
visible
  6
Continuous
 62
     5
100
AcDbLine
 10
109.4661825494
 20
683.032508027
 30
0.0
 11
109.4661825494
 21
644.3330735434
 31
0.0
  0
LINE
  5
E3
330
95
100
AcDbEntity
  8
visible
  6
Continuous
 62
     5
100
AcDbLine
 10
109.4661825494
 20
638.8707113776
 30
0.0
 11
109.4661825494
 21
638.8330735434
 31
0.0
  0
LINE
  5
E4
330
95
100
AcDbEntity
  8
visible
  6
Continuous
 62
     5
100
AcDbLine
 10
109.4661825494
 20
633.8330735434
 30
0.0
 11
109.4661825494
 21
627.9330735434
 31
0.0
  0
LINE
  5
E5
330
95
100
AcDbEntity
  8
visible
  6
Continuous
 62
     5
100
AcDbLine
 10
115.4661825494
 20
627.9330735434
 30
0.0
 11
115.4661825494
 21
633.8330735434
 31
0.0
  0
LINE
  5
E6
330
95
100
AcDbEntity
  8
visible
  6
Continuous
 62
     5
100
AcDbLine
 10
115.4661825494
 20
638.8330735434
 30
0.0
 11
115.4661825494
 21
638.8704476635
 31
0.0
  0
LINE
  5
E7
330
95
100
AcDbEntity
  8
visible
  6
Continuous
 62
     5
100
AcDbLine
 10
115.4661825494
 20
644.3330735434
 30
0.0
 11
115.4661825494
 21
683.032508027
 31
0.0
  0
LINE
  5
E8
330
95
100
AcDbEntity
  8
visible
  6
Continuous
 62
     5
100
AcDbLine
 10
109.4661825494
 20
627.9330735434
 30
0.0
 11
110.0661825494
 21
627.3330735434
 31
0.0
  0
LINE
  5
E9
330
95
100
AcDbEntity
  8
visible
  6
Continuous
 62
     5
100
AcDbLine
 10
114.8661825494
 20
627.3330735434
 30
0.0
 11
115.4661825494
 21
627.9330735434
 31
0.0
  0
LINE
  5
EA
330
95
100
AcDbEntity
  8
visible
  6
Continuous
 62
     5
100
AcDbLine
 10
107.3714551845
 20
637.4123838882
 30
0.0
 11
107.3714551845
 21
638.9330735434
 31
0.0
  0
LINE
  5
EB
330
95
100
AcDbEntity
  8
visible
  6
Continuous
 62
     5
100
AcDbLine
 10
107.3714551845
 20
637.4123838882
 30
0.0
 11
107.3714551845
 21
635.8330735434
 31
0.0
  0
LINE
  5
EC
330
95
100
AcDbEntity
  8
visible
  6
Continuous
 62
     5
100
AcDbLine
 10
117.5714551845
 20
638.9414975257
 30
0.0
 11
117.5714551845
 21
638.1060872697
 31
0.0
  0
ARC
  5
ED
330
95
100
AcDbEntity
  8
visible
  6
Continuous
 62
     5
100
AcDbCircle
 10
129.7714551845
 20
642.8330735434
 30
0.0
 40
1.499999999999948
100
AcDbArc
 50
291.8186388099
 51
90.0
  0
ARC
  5
EE
330
95
100
AcDbEntity
  8
visible
  6
Continuous
 62
     5
100
AcDbCircle
 10
112.4714551845
 20
758.8330735434
 30
0.0
 40
119.9999999999999
100
AcDbArc
 50
267.5641957165
 51
272.4358042835
  0
LINE
  5
EF
330
95
100
AcDbEntity
  8
visible
  6
Continuous
 62
     5
100
AcDbLine
 10
107.3714551845
 20
638.9330735434
 30
0.0
 11
107.3714551845
 21
638.9414975257
 31
0.0
  0
LINE
  5
F0
330
95
100
AcDbEntity
  8
visible
  6
Continuous
 62
     5
100
AcDbLine
 10
97.2714551845
 20
638.9330735434
 30
0.0
 11
97.2714551845
 21
637.4123838882
 31
0.0
  0
LINE
  5
F1
330
95
100
AcDbEntity
  8
visible
  6
Continuous
 62
     5
100
AcDbLine
 10
97.2714551845
 20
637.4123838882
 30
0.0
 11
97.2714551845
 21
635.8330735434
 31
0.0
  0
LINE
  5
F2
330
95
100
AcDbEntity
  8
visible
  6
Continuous
 62
     5
100
AcDbLine
 10
97.2714551845
 20
638.9330735434
 30
0.0
 11
95.9313267341
 21
643.0216010191
 31
0.0
  0
LINE
  5
F3
330
95
100
AcDbEntity
  8
visible
  6
Continuous
 62
     5
100
AcDbLine
 10
96.8815818928
 20
644.3330735434
 30
0.0
 11
114.0686294765
 21
644.3330735434
 31
0.0
  0
ARC
  5
F4
330
95
100
AcDbEntity
  8
visible
  6
Continuous
 62
     5
100
AcDbCircle
 10
96.8815818928
 20
643.3330735434
 30
0.0
 40
1.000000000000001
100
AcDbArc
 50
90.0
 51
198.1479940627
  0
LINE
  5
F5
330
95
100
AcDbEntity
  8
visible
  6
Continuous
 62
     5
100
AcDbLine
 10
118.7714551845
 20
644.3330735434
 30
0.0
 11
116.7714551845
 21
644.3330735434
 31
0.0
  0
LINE
  5
F6
330
95
100
AcDbEntity
  8
visible
  6
Continuous
 62
     5
100
AcDbLine
 10
118.7714551845
 20
644.3330735434
 30
0.0
 11
120.0329965632
 21
644.3330735434
 31
0.0
  0
LINE
  5
F7
330
95
100
AcDbEntity
  8
visible
  6
Continuous
 62
     5
100
AcDbLine
 10
121.4742808924
 20
644.3330735434
 30
0.0
 11
129.7714551845
 21
644.3330735434
 31
0.0
  0
LINE
  5
F8
330
95
100
AcDbEntity
  8
visible
  6
Continuous
 62
     5
100
AcDbLine
 10
115.5099138057
 20
644.3330735434
 30
0.0
 11
116.7714551845
 21
644.3330735434
 31
0.0
  0
LINE
  5
F9
330
95
100
AcDbEntity
  8
visible
  6
Continuous
 62
     5
100
AcDbLine
 10
120.0329965632
 20
644.3330735434
 30
0.0
 11
121.4742808924
 21
644.3330735434
 31
0.0
  0
LINE
  5
FA
330
95
100
AcDbEntity
  8
visible
  6
Continuous
 62
     5
100
AcDbLine
 10
114.0686294765
 20
644.3330735434
 30
0.0
 11
115.5099138057
 21
644.3330735434
 31
0.0
  0
LINE
  5
FB
330
95
100
AcDbEntity
  8
visible
  6
Continuous
 62
     5
100
AcDbLine
 10
119.2174590168
 20
636.9920493074
 30
0.0
 11
130.3289599749
 21
641.4405260905
 31
0.0
  0
ARC
  5
FC
330
95
100
AcDbEntity
  8
visible
  6
Continuous
 62
     5
100
AcDbCircle
 10
118.7714551845
 20
638.1060872697
 30
0.0
 40
1.200000000000007
100
AcDbArc
 50
180.0
 51
291.8186388099
  0
LINE
  5
FD
330
95
100
AcDbEntity
  8
visible
  6
Continuous
 62
     5
100
AcDbLine
 10
97.2714551845
 20
635.8330735434
 30
0.0
 11
107.3714551845
 21
635.8330735434
 31
0.0
  0
LINE
  5
FE
330
95
100
AcDbEntity
  8
visible
  6
Continuous
 62
     5
100
AcDbLine
 10
116.7743143951
 20
638.8330735434
 30
0.0
 11
108.1580507037
 21
638.8330735434
 31
0.0
  0
LINE
  5
FF
330
95
100
AcDbEntity
  8
visible
  6
Continuous
 62
     5
100
AcDbLine
 10
107.4661825494
 20
638.8330735434
 30
0.0
 11
108.1580507037
 21
638.8330735434
 31
0.0
  0
LINE
  5
100
330
95
100
AcDbEntity
  8
visible
  6
Continuous
 62
     5
100
AcDbLine
 10
116.7743143951
 20
638.8330735434
 30
0.0
 11
117.4661825494
 21
638.8330735434
 31
0.0
  0
LINE
  5
101
330
95
100
AcDbEntity
  8
visible
  6
Continuous
 62
     5
100
AcDbLine
 10
108.1580507037
 20
638.8330735434
 30
0.0
 11
108.1580507037
 21
635.5112728057
 31
0.0
  0
LINE
  5
102
330
95
100
AcDbEntity
  8
visible
  6
Continuous
 62
     5
100
AcDbLine
 10
107.4661825494
 20
635.5112728057
 30
0.0
 11
107.4661825494
 21
638.8330735434
 31
0.0
  0
LINE
  5
103
330
95
100
AcDbEntity
  8
visible
  6
Continuous
 62
     5
100
AcDbLine
 10
116.7743143951
 20
635.5112728057
 30
0.0
 11
116.7743143951
 21
638.8330735434
 31
0.0
  0
LINE
  5
104
330
95
100
AcDbEntity
  8
visible
  6
Continuous
 62
     5
100
AcDbLine
 10
117.4661825494
 20
635.5112728057
 30
0.0
 11
117.4661825494
 21
638.8330735434
 31
0.0
  0
LINE
  5
105
330
95
100
AcDbEntity
  8
visible
  6
Continuous
 62
     5
100
AcDbLine
 10
117.4661825494
 20
635.5112728057
 30
0.0
 11
116.7743143951
 21
635.5112728057
 31
0.0
  0
SPLINE
  5
106
330
95
100
AcDbEntity
  8
visible
  6
Continuous
 62
     5
100
AcDbSpline
210
0.0
220
0.0
230
1.0
 70
     8
 71
     3
 72
    20
 73
    16
 74
     0
 42
0.000000001
 43
0.0000000001
 40
0.0
 40
0.0
 40
0.0
 40
0.0
 40
0.2499999999999957
 40
0.2499999999999957
 40
0.3749999999999964
 40
0.3749999999999964
 40
0.4999999999999972
 40
0.4999999999999972
 40
0.624999999999998
 40
0.624999999999998
 40
0.6874999999999988
 40
0.6874999999999988
 40
0.7499999999999996
 40
0.7499999999999996
 40
1.0
 40
1.0
 40
1.0
 40
1.0
 10
116.7743143951122
 20
635.5112728057444
 30
0.0
 10
116.1086691596129
 20
635.1466856132115
 30
0.0
 10
115.4158411194714
 20
634.8132936872623
 30
0.0
 10
114.3404008403622
 20
634.4453526066698
 30
0.0
 10
113.9751545481349
 20
634.3448743619169
 30
0.0
 10
113.2257862496096
 20
634.2057622817506
 30
0.0
 10
112.8408242647038
 20
634.1684421419098
 30
0.0
 10
112.082961230271
 20
634.1689877381004
 30
0.0
 10
111.7061342140343
 20
634.2058041849011
 30
0.0
 10
111.1437293964603
 20
634.3102695413468
 30
0.0
 10
110.9560488745324
 20
634.3534446818404
 30
0.0
 10
110.5872859236704
 20
634.4527624654477
 30
0.0
 10
110.4056334618439
 20
634.5089392836741
 30
0.0
 10
109.5086111975314
 20
634.8166688932762
 30
0.0
 10
108.8256464334382
 20
635.1456172885516
 30
0.0
 10
108.158050703697
 20
635.5112728057444
 30
0.0
  0
LINE
  5
107
330
95
100
AcDbEntity
  8
visible
  6
Continuous
 62
     5
100
AcDbLine
 10
108.1580507037
 20
635.5112728057
 30
0.0
 11
107.4661825494
 21
635.5112728057
 31
0.0
  0
LINE
  5
108
330
95
100
AcDbEntity
  8
visible
  6
Continuous
 62
     5
100
AcDbLine
 10
107.4661825494
 20
635.5112728057
 30
0.0
 11
107.4661825494
 21
634.16871494
 31
0.0
  0
LINE
  5
109
330
95
100
AcDbEntity
  8
visible
  6
Continuous
 62
     5
100
AcDbLine
 10
107.8661825494
 20
633.8330735434
 30
0.0
 11
117.0661825494
 21
633.8330735434
 31
0.0
  0
LINE
  5
10A
330
95
100
AcDbEntity
  8
visible
  6
Continuous
 62
     5
100
AcDbLine
 10
117.4661825494
 20
635.5112728057
 30
0.0
 11
117.4661825494
 21
634.16871494
 31
0.0
  0
LINE
  5
10B
330
95
100
AcDbEntity
  8
visible
  6
Continuous
 62
     5
100
AcDbLine
 10
107.4661825494
 20
634.1687133959
 30
0.0
 11
107.8661825494
 21
633.8330735434
 31
0.0
  0
LINE
  5
10C
330
95
100
AcDbEntity
  8
visible
  6
Continuous
 62
     5
100
AcDbLine
 10
117.0661825494
 20
633.8330735434
 30
0.0
 11
117.4661825494
 21
634.1687133959
 31
0.0
  0
LINE
  5
10D
330
95
100
AcDbEntity
  8
visible
  6
Continuous
 62
     5
100
AcDbLine
 10
265.8208079519
 20
627.3330735434
 30
0.0
 11
261.0208079519
 21
627.3330735434
 31
0.0
  0
LINE
  5
10E
330
95
100
AcDbEntity
  8
visible
  6
Continuous
 62
     5
100
AcDbLine
 10
260.4208079519
 20
627.9330735434
 30
0.0
 11
266.4208079519
 21
627.9330735434
 31
0.0
  0
LINE
  5
10F
330
95
100
AcDbEntity
  8
visible
  6
Continuous
 62
     5
100
AcDbLine
 10
260.4208079519
 20
683.032508027
 30
0.0
 11
260.4208079519
 21
644.3330735434
 31
0.0
  0
LINE
  5
110
330
95
100
AcDbEntity
  8
visible
  6
Continuous
 62
     5
100
AcDbLine
 10
260.4208079519
 20
638.8704476635
 30
0.0
 11
260.4208079519
 21
638.8330735434
 31
0.0
  0
LINE
  5
111
330
95
100
AcDbEntity
  8
visible
  6
Continuous
 62
     5
100
AcDbLine
 10
260.4208079519
 20
633.8330735434
 30
0.0
 11
260.4208079519
 21
627.9330735434
 31
0.0
  0
LINE
  5
112
330
95
100
AcDbEntity
  8
visible
  6
Continuous
 62
     5
100
AcDbLine
 10
266.4208079519
 20
627.9330735434
 30
0.0
 11
266.4208079519
 21
633.8330735434
 31
0.0
  0
LINE
  5
113
330
95
100
AcDbEntity
  8
visible
  6
Continuous
 62
     5
100
AcDbLine
 10
266.4208079519
 20
638.8330735434
 30
0.0
 11
266.4208079519
 21
638.8707113776
 31
0.0
  0
LINE
  5
114
330
95
100
AcDbEntity
  8
visible
  6
Continuous
 62
     5
100
AcDbLine
 10
266.4208079519
 20
644.3330735434
 30
0.0
 11
266.4208079519
 21
683.032508027
 31
0.0
  0
LINE
  5
115
330
95
100
AcDbEntity
  8
visible
  6
Continuous
 62
     5
100
AcDbLine
 10
260.4208079519
 20
627.9330735434
 30
0.0
 11
261.0208079519
 21
627.3330735434
 31
0.0
  0
LINE
  5
116
330
95
100
AcDbEntity
  8
visible
  6
Continuous
 62
     5
100
AcDbLine
 10
265.8208079519
 20
627.3330735434
 30
0.0
 11
266.4208079519
 21
627.9330735434
 31
0.0
  0
LINE
  5
117
330
95
100
AcDbEntity
  8
visible
  6
Continuous
 62
     5
100
AcDbLine
 10
268.5155353169
 20
638.9330735434
 30
0.0
 11
268.5155353169
 21
637.4123838882
 31
0.0
  0
LINE
  5
118
330
95
100
AcDbEntity
  8
visible
  6
Continuous
 62
     5
100
AcDbLine
 10
268.5155353169
 20
637.4123838882
 30
0.0
 11
268.5155353169
 21
635.8330735434
 31
0.0
  0
LINE
  5
119
330
95
100
AcDbEntity
  8
visible
  6
Continuous
 62
     5
100
AcDbLine
 10
245.5580305264
 20
641.4405260905
 30
0.0
 11
256.6695314845
 21
636.9920493074
 31
0.0
  0
ARC
  5
11A
330
95
100
AcDbEntity
  8
visible
  6
Continuous
 62
     5
100
AcDbCircle
 10
246.1155353169
 20
642.8330735434
 30
0.0
 40
1.500000000000001
100
AcDbArc
 50
90.0
 51
248.1813611901
  0
LINE
  5
11B
330
95
100
AcDbEntity
  8
visible
  6
Continuous
 62
     5
100
AcDbLine
 10
268.5155353169
 20
638.9330735434
 30
0.0
 11
268.5155353169
 21
638.9414975257
 31
0.0
  0
ARC
  5
11C
330
95
100
AcDbEntity
  8
visible
  6
Continuous
 62
     5
100
AcDbCircle
 10
263.4155353169
 20
758.8330735434
 30
0.0
 40
120.0
100
AcDbArc
 50
267.5641957165
 51
272.4358042835
  0
LINE
  5
11D
330
95
100
AcDbEntity
  8
visible
  6
Continuous
 62
     5
100
AcDbLine
 10
278.6155353169
 20
638.9330735434
 30
0.0
 11
279.9556637673
 21
643.0216010191
 31
0.0
  0
LINE
  5
11E
330
95
100
AcDbEntity
  8
visible
  6
Continuous
 62
     5
100
AcDbLine
 10
278.6155353169
 20
637.4123838882
 30
0.0
 11
278.6155353169
 21
635.8330735434
 31
0.0
  0
LINE
  5
11F
330
95
100
AcDbEntity
  8
visible
  6
Continuous
 62
     5
100
AcDbLine
 10
278.6155353169
 20
637.4123838882
 30
0.0
 11
278.6155353169
 21
638.9330735434
 31
0.0
  0
LINE
  5
120
330
95
100
AcDbEntity
  8
visible
  6
Continuous
 62
     5
100
AcDbLine
 10
279.0054086086
 20
644.3330735434
 30
0.0
 11
261.8183610249
 21
644.3330735434
 31
0.0
  0
ARC
  5
121
330
95
100
AcDbEntity
  8
visible
  6
Continuous
 62
     5
100
AcDbCircle
 10
279.0054086086
 20
643.3330735434
 30
0.0
 40
0.9999999999999547
100
AcDbArc
 50
341.8520059373
 51
90.0
  0
LINE
  5
122
330
95
100
AcDbEntity
  8
visible
  6
Continuous
 62
     5
100
AcDbLine
 10
257.1155353169
 20
644.3330735434
 30
0.0
 11
259.1155353169
 21
644.3330735434
 31
0.0
  0
LINE
  5
123
330
95
100
AcDbEntity
  8
visible
  6
Continuous
 62
     5
100
AcDbLine
 10
259.1155353169
 20
644.3330735434
 30
0.0
 11
260.3770766957
 21
644.3330735434
 31
0.0
  0
LINE
  5
124
330
95
100
AcDbEntity
  8
visible
  6
Continuous
 62
     5
100
AcDbLine
 10
254.4127096089
 20
644.3330735434
 30
0.0
 11
246.1155353169
 21
644.3330735434
 31
0.0
  0
LINE
  5
125
330
95
100
AcDbEntity
  8
visible
  6
Continuous
 62
     5
100
AcDbLine
 10
255.8539939381
 20
644.3330735434
 30
0.0
 11
257.1155353169
 21
644.3330735434
 31
0.0
  0
LINE
  5
126
330
95
100
AcDbEntity
  8
visible
  6
Continuous
 62
     5
100
AcDbLine
 10
254.4127096089
 20
644.3330735434
 30
0.0
 11
255.8539939381
 21
644.3330735434
 31
0.0
  0
LINE
  5
127
330
95
100
AcDbEntity
  8
visible
  6
Continuous
 62
     5
100
AcDbLine
 10
260.3770766957
 20
644.3330735434
 30
0.0
 11
261.8183610249
 21
644.3330735434
 31
0.0
  0
LINE
  5
128
330
95
100
AcDbEntity
  8
visible
  6
Continuous
 62
     5
100
AcDbLine
 10
258.3155353169
 20
638.1060872697
 30
0.0
 11
258.3155353169
 21
638.9414975257
 31
0.0
  0
ARC
  5
129
330
95
100
AcDbEntity
  8
visible
  6
Continuous
 62
     5
100
AcDbCircle
 10
257.1155353169
 20
638.1060872697
 30
0.0
 40
1.199999999999971
100
AcDbArc
 50
248.1813611901
 51
0.0
  0
LINE
  5
12A
330
95
100
AcDbEntity
  8
visible
  6
Continuous
 62
     5
100
AcDbLine
 10
268.5155353169
 20
635.8330735434
 30
0.0
 11
278.6155353169
 21
635.8330735434
 31
0.0
  0
LINE
  5
12B
330
95
100
AcDbEntity
  8
visible
  6
Continuous
 62
     5
100
AcDbLine
 10
267.7289397976
 20
638.8330735434
 30
0.0
 11
259.1126761062
 21
638.8330735434
 31
0.0
  0
LINE
  5
12C
330
95
100
AcDbEntity
  8
visible
  6
Continuous
 62
     5
100
AcDbLine
 10
267.7289397976
 20
638.8330735434
 30
0.0
 11
268.4208079519
 21
638.8330735434
 31
0.0
  0
LINE
  5
12D
330
95
100
AcDbEntity
  8
visible
  6
Continuous
 62
     5
100
AcDbLine
 10
258.4208079519
 20
638.8330735434
 30
0.0
 11
259.1126761062
 21
638.8330735434
 31
0.0
  0
LINE
  5
12E
330
95
100
AcDbEntity
  8
visible
  6
Continuous
 62
     5
100
AcDbLine
 10
259.1126761062
 20
638.8330735434
 30
0.0
 11
259.1126761062
 21
635.5112728057
 31
0.0
  0
LINE
  5
12F
330
95
100
AcDbEntity
  8
visible
  6
Continuous
 62
     5
100
AcDbLine
 10
268.4208079519
 20
638.8330735434
 30
0.0
 11
268.4208079519
 21
635.5112728057
 31
0.0
  0
LINE
  5
130
330
95
100
AcDbEntity
  8
visible
  6
Continuous
 62
     5
100
AcDbLine
 10
258.4208079519
 20
638.8330735434
 30
0.0
 11
258.4208079519
 21
635.5112728057
 31
0.0
  0
LINE
  5
131
330
95
100
AcDbEntity
  8
visible
  6
Continuous
 62
     5
100
AcDbLine
 10
267.7289397976
 20
635.5112728057
 30
0.0
 11
267.7289397976
 21
638.8330735434
 31
0.0
  0
LINE
  5
132
330
95
100
AcDbEntity
  8
visible
  6
Continuous
 62
     5
100
AcDbLine
 10
268.4208079519
 20
635.5112728057
 30
0.0
 11
267.7289397976
 21
635.5112728057
 31
0.0
  0
LINE
  5
133
330
95
100
AcDbEntity
  8
visible
  6
Continuous
 62
     5
100
AcDbLine
 10
268.4208079519
 20
635.5112728057
 30
0.0
 11
268.4208079519
 21
634.16871494
 31
0.0
  0
SPLINE
  5
134
330
95
100
AcDbEntity
  8
visible
  6
Continuous
 62
     5
100
AcDbSpline
210
0.0
220
0.0
230
1.0
 70
     8
 71
     3
 72
    20
 73
    16
 74
     0
 42
0.000000001
 43
0.0000000001
 40
0.0
 40
0.0
 40
0.0
 40
0.0
 40
0.2499999999999993
 40
0.2499999999999993
 40
0.3124999999999998
 40
0.3124999999999998
 40
0.3750000000000003
 40
0.3750000000000003
 40
0.5000000000000014
 40
0.5000000000000014
 40
0.6250000000000026
 40
0.6250000000000026
 40
0.7500000000000036
 40
0.7500000000000036
 40
1.0
 40
1.0
 40
1.0
 40
1.0
 10
267.7289397976448
 20
635.5112728057443
 30
0.0
 10
267.0613440679035
 20
635.1456172885516
 30
0.0
 10
266.3783793038104
 20
634.8166688932762
 30
0.0
 10
265.4813570394978
 20
634.508939283674
 30
0.0
 10
265.2997045776713
 20
634.4527624654476
 30
0.0
 10
264.9309416268093
 20
634.3534446818404
 30
0.0
 10
264.7432611048815
 20
634.3102695413468
 30
0.0
 10
264.1808562873074
 20
634.205804184901
 30
0.0
 10
263.8040292710707
 20
634.1689877381004
 30
0.0
 10
263.0461662366379
 20
634.1684421419098
 30
0.0
 10
262.6612042517321
 20
634.2057622817506
 30
0.0
 10
261.9118359532068
 20
634.3448743619169
 30
0.0
 10
261.5465896609796
 20
634.4453526066696
 30
0.0
 10
260.4711493818703
 20
634.8132936872623
 30
0.0
 10
259.7783213417289
 20
635.1466856132114
 30
0.0
 10
259.1126761062296
 20
635.5112728057443
 30
0.0
  0
LINE
  5
135
330
95
100
AcDbEntity
  8
visible
  6
Continuous
 62
     5
100
AcDbLine
 10
259.1126761062
 20
635.5112728057
 30
0.0
 11
258.4208079519
 21
635.5112728057
 31
0.0
  0
LINE
  5
136
330
95
100
AcDbEntity
  8
visible
  6
Continuous
 62
     5
100
AcDbLine
 10
258.8208079519
 20
633.8330735434
 30
0.0
 11
268.0208079519
 21
633.8330735434
 31
0.0
  0
LINE
  5
137
330
95
100
AcDbEntity
  8
visible
  6
Continuous
 62
     5
100
AcDbLine
 10
258.4208079519
 20
635.5112728057
 30
0.0
 11
258.4208079519
 21
634.16871494
 31
0.0
  0
LINE
  5
138
330
95
100
AcDbEntity
  8
visible
  6
Continuous
 62
     5
100
AcDbLine
 10
258.4208079519
 20
634.1687133959
 30
0.0
 11
258.8208079519
 21
633.8330735434
 31
0.0
  0
LINE
  5
139
330
95
100
AcDbEntity
  8
visible
  6
Continuous
 62
     5
100
AcDbLine
 10
268.0208079519
 20
633.8330735434
 30
0.0
 11
268.4208079519
 21
634.1687133959
 31
0.0
  0
ENDBLK
  5
13B
330
95
100
AcDbEntity
  8
0
100
AcDbBlockEnd
  0
BLOCK
  5
1D5
330
13C
100
AcDbEntity
  8
0
100
AcDbBlockBegin
  2
SE1
 70
     0
 10
0.0
 20
0.0
 30
0.0
  3
SE1
  1
SE1
  0
ARC
  5
13E
330
13C
100
AcDbEntity
  8
visible
  6
Continuous
 62
     5
100
AcDbCircle
 10
518.426745891
 20
685.3244786445
 30
0.0
 40
13.45448948580888
100
AcDbArc
 50
2.2084947097
 51
45.6535003006
  0
SPLINE
  5
13F
330
13C
100
AcDbEntity
  8
visible
  6
Continuous
 62
     5
100
AcDbSpline
210
0.0
220
0.0
230
1.0
 70
     8
 71
     6
 72
    14
 73
     7
 74
     0
 42
0.000000001
 43
0.0000000001
 40
0.0
 40
0.0
 40
0.0
 40
0.0
 40
0.0
 40
0.0
 40
0.0
 40
1.0
 40
1.0
 40
1.0
 40
1.0
 40
1.0
 40
1.0
 40
1.0
 10
534.8652477799527
 20
683.0325080270235
 30
0.0
 10
534.0322792374936
 20
683.0325080270235
 30
0.0
 10
533.336498318137
 20
683.0325080270235
 30
0.0
 10
532.4031121203656
 20
683.4493729851955
 30
0.0
 10
531.9374210627901
 20
684.3458129836414
 30
0.0
 10
531.9186475280875
 20
685.0941699754317
 30
0.0
 10
531.8712415707624
 20
685.8429603136193
 30
0.0
  0
ARC
  5
140
330
13C
100
AcDbEntity
  8
visible
  6
Continuous
 62
     5
100
AcDbCircle
 10
958.3038200734
 20
697.5442395242
 30
0.0
 40
304.6235089597475
100
AcDbArc
 50
178.7657155746
 51
178.7660620675
  0
LINE
  5
141
330
13C
100
AcDbEntity
  8
visible
  6
Continuous
 62
     5
100
AcDbLine
 10
534.86524778
 20
683.032508027
 30
0.0
 11
565.9643618785
 21
683.032508027
 31
0.0
  0
ARC
  5
142
330
13C
100
AcDbEntity
  8
visible
  6
Continuous
 62
     5
100
AcDbCircle
 10
454.975383013
 20
707.0330087538
 30
0.0
 40
15.0009139545137
100
AcDbArc
 50
216.9819779816
 51
288.8234068368
  0
ARC
  5
143
330
13C
100
AcDbEntity
  8
visible
  6
Continuous
 62
     5
100
AcDbCircle
 10
493.3739951291
 20
642.6791633747
 30
0.0
 40
61.40244619706363
100
AcDbArc
 50
79.9380040561
 51
94.1131707121
  0
SPLINE
  5
144
330
13C
100
AcDbEntity
  8
visible
  6
Continuous
 62
     5
100
AcDbSpline
210
0.0
220
0.0
230
1.0
 70
     8
 71
     5
 72
    12
 73
     6
 74
     0
 42
0.000000001
 43
0.0000000001
 40
0.0
 40
0.0
 40
0.0
 40
0.0
 40
0.0
 40
0.0
 40
0.5252756782277005
 40
0.5252756782277005
 40
0.5252756782277005
 40
0.5252756782277005
 40
0.5252756782277005
 40
0.5252756782277005
 10
488.9697986679593
 20
703.92345659879
 30
0.0
 10
489.3433560143005
 20
702.7831453524121
 30
0.0
 10
489.6691169357522
 20
701.9014314724708
 30
0.0
 10
489.9766972568228
 20
701.2252851074811
 30
0.0
 10
490.2737819896452
 20
700.846217819262
 30
0.0
 10
490.5582731533402
 20
700.7688842378957
 30
0.0
  0
SPLINE
  5
145
330
13C
100
AcDbEntity
  8
visible
  6
Continuous
 62
     5
100
AcDbSpline
210
0.0
220
0.0
230
1.0
 70
     8
 71
     6
 72
    14
 73
     7
 74
     0
 42
0.000000001
 43
0.0000000001
 40
0.0007847832552772
 40
0.0007847832552772
 40
0.0007847832552772
 40
0.0007847832552772
 40
0.0007847832552772
 40
0.0007847832552772
 40
0.0007847832552772
 40
0.0446067357730648
 40
0.0446067357730648
 40
0.0446067357730648
 40
0.0446067357730648
 40
0.0446067357730648
 40
0.0446067357730648
 40
0.0446067357730648
 10
879.9136917864929
 20
690.9185586085816
 30
0.0
 10
879.9216976856075
 20
690.9035239142235
 30
0.0
 10
879.9161018239115
 20
690.8888022043758
 30
0.0
 10
879.8970832836715
 20
690.874309298257
 30
0.0
 10
879.8648086003777
 20
690.8599787855069
 30
0.0
 10
879.8194325071029
 20
690.8457594760962
 30
0.0
 10
879.7610986503597
 20
690.8316131631324
 30
0.0
  0
SPLINE
  5
146
330
13C
100
AcDbEntity
  8
visible
  6
Continuous
 62
     5
100
AcDbSpline
210
0.0
220
0.0
230
1.0
 70
     8
 71
     5
 72
    12
 73
     6
 74
     0
 42
0.000000001
 43
0.0000000001
 40
0.0
 40
0.0
 40
0.0
 40
0.0
 40
0.0
 40
0.0
 40
0.0216152144667989
 40
0.0216152144667989
 40
0.0216152144667989
 40
0.0216152144667989
 40
0.0216152144667989
 40
0.0216152144667989
 10
890.4994079184021
 20
693.5325074309773
 30
0.0
 10
890.4994085366313
 20
693.4498536375386
 30
0.0
 10
890.4986066616208
 20
693.3682182104748
 30
0.0
 10
890.4969587614986
 20
693.287600235802
 30
0.0
 10
890.494425109915
 20
693.207998597758
 30
0.0
 10
890.4909696092361
 20
693.1294119799222
 30
0.0
  0
SPLINE
  5
147
330
13C
100
AcDbEntity
  8
0
  6
Continuous
 62
     5
100
AcDbSpline
210
0.0
220
0.0
230
1.0
 70
     8
 71
     5
 72
    12
 73
     6
 74
     0
 42
0.000000001
 43
0.0000000001
 40
0.1689016571810256
 40
0.1689016571810256
 40
0.1689016571810256
 40
0.1689016571810256
 40
0.1689016571810256
 40
0.1689016571810256
 40
0.2784747342732685
 40
0.2784747342732685
 40
0.2784747342732685
 40
0.2784747342732685
 40
0.2784747342732685
 40
0.2784747342732685
 10
889.8675294221126
 20
690.9169301038753
 30
0.0
 10
889.693011703586
 20
690.655663562167
 30
0.0
 10
889.4873938991997
 20
690.4190797013053
 30
0.0
 10
889.2513462763136
 20
690.2066575861248
 30
0.0
 10
888.9871397707329
 20
690.0177488158632
 30
0.0
 10
888.6980541254379
 20
689.8515812738049
 30
0.0
  0
SPLINE
  5
148
330
13C
100
AcDbEntity
  8
visible
  6
Continuous
 62
     5
100
AcDbSpline
210
0.0
220
0.0
230
1.0
 70
     8
 71
     5
 72
    12
 73
     6
 74
     0
 42
0.000000001
 43
0.0000000001
 40
0.5617675457366239
 40
0.5617675457366239
 40
0.5617675457366239
 40
0.5617675457366239
 40
0.5617675457366239
 40
0.5617675457366239
 40
0.7639323019086531
 40
0.7639323019086531
 40
0.7639323019086531
 40
0.7639323019086531
 40
0.7639323019086531
 40
0.7639323019086531
 10
884.0217942563264
 20
689.0629885415843
 30
0.0
 10
883.3362812214947
 20
689.1177186790303
 30
0.0
 10
882.6867180020746
 20
689.2212513759205
 30
0.0
 10
882.1016180340064
 20
689.3648768192693
 30
0.0
 10
881.6034527431549
 20
689.5385639210401
 30
0.0
 10
881.1959975443112
 20
689.7310404855856
 30
0.0
  0
SPLINE
  5
149
330
13C
100
AcDbEntity
  8
visible
  6
Continuous
 62
     5
100
AcDbSpline
210
0.0
220
0.0
230
1.0
 70
     8
 71
     5
 72
    12
 73
     6
 74
     0
 42
0.000000001
 43
0.0000000001
 40
0.0
 40
0.0
 40
0.0
 40
0.0
 40
0.0
 40
0.0
 40
1.0
 40
1.0
 40
1.0
 40
1.0
 40
1.0
 40
1.0
 10
876.1647097318865
 20
701.2023063764435
 30
0.0
 10
880.932162234531
 20
700.300486863906
 30
0.0
 10
884.612587491814
 20
699.4751605799134
 30
0.0
 10
888.959942426457
 20
698.3769244069949
 30
0.0
 10
890.291553229459
 20
695.5099699132737
 30
0.0
 10
890.4994079184021
 20
693.5325074309773
 30
0.0
  0
SPLINE
  5
14A
330
13C
100
AcDbEntity
  8
tangente
  6
Continuous
 62
     5
100
AcDbSpline
210
0.0
220
0.0
230
1.0
 70
     8
 71
     6
 72
    14
 73
     7
 74
     0
 42
0.000000001
 43
0.0000000001
 40
0.9761315958330438
 40
0.9761315958330438
 40
0.9761315958330438
 40
0.9761315958330438
 40
0.9761315958330438
 40
0.9761315958330438
 40
0.9761315958330438
 40
1.0
 40
1.0
 40
1.0
 40
1.0
 40
1.0
 40
1.0
 40
1.0
 10
876.001917237858
 20
701.1947062094915
 30
0.0
 10
876.0505683630062
 20
701.1982643832657
 30
0.0
 10
876.0904553264762
 20
701.2010177805577
 30
0.0
 10
876.1216887946176
 20
701.2028862803054
 30
0.0
 10
876.1443882512026
 20
701.2037848791657
 30
0.0
 10
876.1586824244281
 20
701.2036234314738
 30
0.0
 10
876.1647097318865
 20
701.2023063764435
 30
0.0
  0
LINE
  5
14B
330
13C
100
AcDbEntity
  8
visible
  6
Continuous
 62
     5
100
AcDbLine
 10
598.0710070566
 20
683.032508027
 30
0.0
 11
653.6896860959
 21
683.032508027
 31
0.0
  0
LINE
  5
14C
330
13C
100
AcDbEntity
  8
visible
  6
Continuous
 62
     5
100
AcDbLine
 10
565.9643618785
 20
683.032508027
 30
0.0
 11
598.0710070566
 21
683.032508027
 31
0.0
  0
LINE
  5
14D
330
13C
100
AcDbEntity
  8
visible
  6
Continuous
 62
     5
100
AcDbLine
 10
789.4370740931
 20
683.032508027
 30
0.0
 11
653.6896860959
 21
683.032508027
 31
0.0
  0
LINE
  5
14E
330
13C
100
AcDbEntity
  8
visible
  6
Continuous
 62
     5
100
AcDbLine
 10
819.9606760444
 20
683.032508027
 30
0.0
 11
789.4370740931
 21
683.032508027
 31
0.0
  0
ARC
  5
14F
330
13C
100
AcDbEntity
  8
visible
  6
Continuous
 62
     5
100
AcDbCircle
 10
457.6148112356
 20
709.198497937
 30
0.0
 40
18.41198695084084
100
AcDbArc
 50
191.2288348932
 51
217.4240613062
  0
SPLINE
  5
150
330
13C
100
AcDbEntity
  8
visible
  6
Continuous
 62
     5
100
AcDbSpline
210
0.0
220
0.0
230
1.0
 70
     8
 71
     2
 72
    10
 73
     7
 74
     0
 42
0.000000001
 43
0.0000000001
 40
0.2878102811049102
 40
0.2878102811049102
 40
0.2878102811049102
 40
0.375
 40
0.375
 40
0.5
 40
0.5
 40
1.0
 40
1.0
 40
1.0
 10
466.7438979970029
 20
697.4112761803156
 30
0.0
 10
467.2505973439004
 20
697.8651786277818
 30
0.0
 10
467.556422262921
 20
698.1316118094071
 30
0.0
 10
467.9688515084459
 20
698.4909181616573
 30
0.0
 10
468.3467030953398
 20
698.8049444063239
 30
0.0
 10
471.0253534310559
 20
701.0311266823187
 30
0.0
 10
473.3832325256295
 20
702.1281167991231
 30
0.0
  0
SPLINE
  5
151
330
13C
100
AcDbEntity
  8
visible
  6
Continuous
 62
     5
100
AcDbSpline
210
0.0
220
0.0
230
1.0
 70
     8
 71
     6
 72
    16
 73
     9
 74
     0
 42
0.000000001
 43
0.0000000001
 40
0.0
 40
0.0
 40
0.0
 40
0.0
 40
0.0
 40
0.0
 40
0.0
 40
0.3333333333333329
 40
0.666666666666667
 40
1.0
 40
1.0
 40
1.0
 40
1.0
 40
1.0
 40
1.0
 40
1.0
 10
488.9697986679593
 20
703.92345659879
 30
0.0
 10
487.8615178941778
 20
703.8008414283406
 30
0.0
 10
485.6639512915881
 20
703.4663982329304
 30
0.0
 10
482.4358923167976
 20
703.0291824745782
 30
0.0
 10
479.5337795391495
 20
703.2185690436843
 30
0.0
 10
477.3202011250732
 20
703.5659396407962
 30
0.0
 10
475.4376102733301
 20
703.08388479704
 30
0.0
 10
474.1016288011949
 20
702.4623397399668
 30
0.0
 10
473.3832325256295
 20
702.1281167991231
 30
0.0
  0
ARC
  5
152
330
13C
100
AcDbEntity
  8
visible
  6
Continuous
 62
     5
100
AcDbCircle
 10
644.0760075362
 20
1713.4649374977
 30
0.0
 40
1019.97789799066
100
AcDbArc
 50
262.1122628043
 51
270.5409998229
  0
SPLINE
  5
153
330
13C
100
AcDbEntity
  8
visible
  6
Continuous
 62
     5
100
AcDbSpline
210
0.0
220
0.0
230
1.0
 70
     8
 71
     6
 72
    14
 73
     7
 74
     0
 42
0.000000001
 43
0.0000000001
 40
0.0
 40
0.0
 40
0.0
 40
0.0
 40
0.0
 40
0.0
 40
0.0
 40
1.0
 40
1.0
 40
1.0
 40
1.0
 40
1.0
 40
1.0
 40
1.0
 10
822.959537240557
 20
685.9498456659702
 30
0.0
 10
822.937900831099
 20
685.1649325969581
 30
0.0
 10
822.935857375392
 20
684.4035913173306
 30
0.0
 10
822.4762848555987
 20
683.4722650959228
 30
0.0
 10
821.5264607944268
 20
683.0325080270237
 30
0.0
 10
820.8003007931507
 20
683.0325080270237
 30
0.0
 10
819.9606760444055
 20
683.0325080270237
 30
0.0
  0
ARC
  5
154
330
13C
100
AcDbEntity
  8
visible
  6
Continuous
 62
     5
100
AcDbCircle
 10
835.2985663104
 20
686.6543027103
 30
0.0
 40
12.35912206075561
100
AcDbArc
 50
168.7368647416
 51
183.2675705243
  0
SPLINE
  5
155
330
13C
100
AcDbEntity
  8
visible
  6
Continuous
 62
     5
100
AcDbSpline
210
0.0
220
0.0
230
1.0
 70
     8
 71
     3
 72
    13
 73
     9
 74
     0
 42
0.000000001
 43
0.0000000001
 40
0.7988878392270509
 40
0.7988878392270509
 40
0.7988878392270509
 40
0.7988878392270509
 40
0.807720373615603
 40
0.8461798887260512
 40
0.8846377377721498
 40
0.9230937876170051
 40
0.9615479136571151
 40
1.0
 40
1.0
 40
1.0
 40
1.0
 10
784.5943438111738
 20
689.0353757643043
 30
0.0
 10
784.6969423397035
 20
689.0354302140967
 30
0.0
 10
785.2460538688179
 20
689.03572245337
 30
0.0
 10
786.2394399299696
 20
689.0362588821441
 30
0.0
 10
787.5709928986633
 20
689.0369926243179
 30
0.0
 10
788.8972414666597
 20
689.037736115786
 30
0.0
 10
790.2185783498572
 20
689.0384868137908
 30
0.0
 10
791.0949201304059
 20
689.0389912512994
 30
0.0
 10
791.5330793968944
 20
689.0392430902805
 30
0.0
  0
LINE
  5
156
330
13C
100
AcDbEntity
  8
visible
  6
Continuous
 62
     5
100
AcDbLine
 10
890.4994079184
 20
693.532507431
 30
0.0
 11
653.7067284626
 21
693.532507577
 31
0.0
  0
SPLINE
  5
157
330
13C
100
AcDbEntity
  8
visible
  6
Continuous
 62
     5
100
AcDbSpline
210
0.0
220
0.0
230
1.0
 70
     8
 71
     3
 72
     9
 73
     5
 74
     0
 42
0.000000001
 43
0.0000000001
 40
0.0
 40
0.0
 40
0.0
 40
0.0
 40
0.012116010864374
 40
0.0227737249778753
 40
0.0227737249778753
 40
0.0227737249778753
 40
0.0227737249778753
 10
876.1647097318865
 20
701.2023063764435
 30
0.0
 10
876.1501443400113
 20
701.2026966054116
 30
0.0
 10
876.1227666511567
 20
701.2034300989975
 30
0.0
 10
876.032726457636
 20
701.1969190855235
 30
0.0
 10
875.9795978164037
 20
701.1929388668653
 30
0.0
  0
SPLINE
  5
158
330
13C
100
AcDbEntity
  8
visible
  6
Continuous
 62
     5
100
AcDbSpline
210
0.0
220
0.0
230
1.0
 70
     8
 71
     3
 72
     8
 73
     4
 74
     0
 42
0.000000001
 43
0.0000000001
 40
0.7259928049768752
 40
0.7259928049768752
 40
0.7259928049768752
 40
0.7259928049768752
 40
0.7280333471564171
 40
0.7280333471564171
 40
0.7280333471564171
 40
0.7280333471564171
 10
736.9035237846816
 20
702.4256700307207
 30
0.0
 10
736.7013479513264
 20
702.4292132569623
 30
0.0
 10
736.4991139159813
 20
702.4327596785142
 30
0.0
 10
736.2968223104084
 20
702.4363092373108
 30
0.0
  0
ARC
  5
159
330
13C
100
AcDbEntity
  8
visible
  6
Continuous
 62
     5
100
AcDbCircle
 10
957.5088615777
 20
697.549751303
 30
0.0
 40
303.8286924114115
100
AcDbArc
 50
178.7641124095
 51
178.7642518772
  0
ARC
  5
15A
330
13C
100
AcDbEntity
  8
visible
  6
Continuous
 62
     5
100
AcDbCircle
 10
837.8472546566
 20
503.1124100288
 30
0.0
 40
201.7618259197741
100
AcDbArc
 50
79.0522173604
 51
86.5744039301
  0
ARC
  5
15B
330
13C
100
AcDbEntity
  8
tangente
  6
Continuous
 62
     5
100
AcDbCircle
 10
664.1874999669
 20
4886.5884029071
 30
0.0
 40
4185.226799893221
100
AcDbArc
 50
271.7319120237
 51
271.7589509283
  0
ARC
  5
15C
330
13C
100
AcDbEntity
  8
visible
  6
Continuous
 62
     5
100
AcDbCircle
 10
477.3889112147
 20
704.2790168355
 30
0.0
 40
37.86075996727765
100
AcDbArc
 50
161.3279124854
 51
175.4143089865
  0
ARC
  5
15D
330
13C
100
AcDbEntity
  8
visible
  6
Continuous
 62
     5
100
AcDbCircle
 10
526.9625228555
 20
829.3156003992
 30
0.0
 40
133.6020435535573
100
AcDbArc
 50
254.1900008418
 51
262.0262265901
  0
ARC
  5
15E
330
13C
100
AcDbEntity
  8
visible
  6
Continuous
 62
     5
100
AcDbCircle
 10
883.7449096906
 20
693.8356577021
 30
0.0
 40
6.78295588745557
100
AcDbArc
 50
334.5253857488
 51
336.7137648826
  0
ARC
  5
15F
330
13C
100
AcDbEntity
  8
visible
  6
Continuous
 62
     5
100
AcDbCircle
 10
883.7449096906
 20
693.8356577021
 30
0.0
 40
6.78295588745557
100
AcDbArc
 50
350.5780902735
 51
354.0195230371
  0
ARC
  5
160
330
13C
100
AcDbEntity
  8
visible
  6
Continuous
 62
     5
100
AcDbCircle
 10
564.9381615173
 20
-5746.314002858
 30
0.0
 40
6451.029774668574
100
AcDbArc
 50
88.4749656467
 51
88.5208824696
  0
ARC
  5
161
330
13C
100
AcDbEntity
  8
visible
  6
Continuous
 62
     5
100
AcDbCircle
 10
564.9381615173
 20
-5746.314002858
 30
0.0
 40
6451.029774668574
100
AcDbArc
 50
89.1961698734
 51
89.2111709682
  0
ARC
  5
162
330
13C
100
AcDbEntity
  8
visible
  6
Continuous
 62
     5
100
AcDbCircle
 10
868.8842686311
 20
651.9430054534
 30
0.0
 40
49.74064394632063
100
AcDbArc
 50
78.7571432262
 51
78.8099057747
  0
SPLINE
  5
163
330
13C
100
AcDbEntity
  8
visible
  6
Continuous
 62
     5
100
AcDbSpline
210
0.0
220
0.0
230
1.0
 70
     8
 71
     3
 72
    16
 73
    12
 74
     0
 42
0.000000001
 43
0.0000000001
 40
0.5503697039035467
 40
0.5503697039035467
 40
0.5503697039035467
 40
0.5503697039035467
 40
0.5901398934741533
 40
0.6053244378957238
 40
0.6203378552461194
 40
0.6511105213769125
 40
0.6948228803826224
 40
0.7514834721953744
 40
0.8211255153459129
 40
0.9038966695655358
 40
1.0
 40
1.0
 40
1.0
 40
1.0
 10
467.8617348445841
 20
698.387763255507
 30
0.0
 10
467.9795698266248
 20
698.486942987856
 30
0.0
 10
468.151601435657
 20
698.6298712388877
 30
0.0
 10
468.406097674434
 20
698.8357503720559
 30
0.0
 10
468.6463999552608
 20
699.0270019557848
 30
0.0
 10
469.0033327021748
 20
699.3035479146961
 30
0.0
 10
469.5387702164184
 20
699.6989400674497
 30
0.0
 10
470.2516236581695
 20
700.1877420842308
 30
0.0
 10
471.1502405478931
 20
700.7403820644112
 30
0.0
 10
472.2771377849215
 20
701.3381824213329
 30
0.0
 10
473.0405820445191
 20
701.6442365777531
 30
0.0
 10
473.5279832453294
 20
701.8363517019554
 30
0.0
  0
SPLINE
  5
164
330
13C
100
AcDbEntity
  8
visible
  6
Continuous
 62
     5
100
AcDbSpline
210
0.0
220
0.0
230
1.0
 70
     8
 71
     3
 72
    29
 73
    25
 74
     0
 42
0.000000001
 43
0.0000000001
 40
0.0
 40
0.0
 40
0.0
 40
0.0
 40
0.0617900966606784
 40
0.1158260836770354
 40
0.1713145353762759
 40
0.2167381254568967
 40
0.2516264765398395
 40
0.280801372472694
 40
0.3115578139430334
 40
0.3621364422825737
 40
0.4012767531546468
 40
0.4482333013624559
 40
0.5095439276482263
 40
0.5844865991023338
 40
0.6552463625015439
 40
0.7201886258281459
 40
0.7766569365467302
 40
0.798703949363513
 40
0.8188001776756895
 40
0.8374516626920623
 40
0.8640384719243787
 40
0.9017445220135096
 40
0.9494270410977427
 40
1.0
 40
1.0
 40
1.0
 40
1.0
 10
473.4624254670538
 20
701.8114574790884
 30
0.0
 10
473.9417215155109
 20
701.9863258864099
 30
0.0
 10
474.6982295680846
 20
702.2576954524628
 30
0.0
 10
475.8881592568097
 20
702.5904428085593
 30
0.0
 10
476.8942181650564
 20
702.7861706531043
 30
0.0
 10
477.7327728639727
 20
702.8819120913759
 30
0.0
 10
478.3687529296884
 20
702.9155155576228
 30
0.0
 10
478.8867043839193
 20
702.9197723902454
 30
0.0
 10
479.4656345064168
 20
702.902221986442
 30
0.0
 10
480.0538035331422
 20
702.8580121336303
 30
0.0
 10
480.7337926365984
 20
702.7825483171674
 30
0.0
 10
481.4924314149715
 20
702.6774270583641
 30
0.0
 10
482.4357007595763
 20
702.5235617913634
 30
0.0
 10
483.5022065565659
 20
702.3284353164031
 30
0.0
 10
484.6017271484188
 20
702.1133439107447
 30
0.0
 10
485.6441068089679
 20
701.9003900376084
 30
0.0
 10
486.4517470770654
 20
701.7293015851461
 30
0.0
 10
487.0130958653716
 20
701.6073214697916
 30
0.0
 10
487.3618404986895
 20
701.5304305661887
 30
0.0
 10
487.7404191612127
 20
701.4457567970028
 30
0.0
 10
488.2124273416619
 20
701.3383433615837
 30
0.0
 10
488.8527121805591
 20
701.1890134004175
 30
0.0
 10
489.6665496938854
 20
700.992407169425
 30
0.0
 10
490.2209523861527
 20
700.853427898084
 30
0.0
 10
490.5604293359076
 20
700.7681021895537
 30
0.0
  0
ARC
  5
165
330
13C
100
AcDbEntity
  8
visible
  6
Continuous
 62
     5
100
AcDbCircle
 10
652.3444821273
 20
1992.5983153797
 30
0.0
 40
1303.561657015828
100
AcDbArc
 50
263.6614808676
 51
270.0713203499
  0
SPLINE
  5
166
330
13C
100
AcDbEntity
  8
visible
  6
Continuous
 62
     5
100
AcDbSpline
210
0.0
220
0.0
230
1.0
 70
     8
 71
     3
 72
    68
 73
    64
 74
     0
 42
0.000000001
 43
0.0000000001
 40
0.0
 40
0.0
 40
0.0
 40
0.0
 40
0.0158547961033231
 40
0.0366211472375664
 40
0.0568355338465765
 40
0.07650954294615
 40
0.0956542029010806
 40
0.1142800089083081
 40
0.1323969467029232
 40
0.1503751955221615
 40
0.1693648894821587
 40
0.1898075983941305
 40
0.2113463599982539
 40
0.2339592012904645
 40
0.2576252075515868
 40
0.2823860926254056
 40
0.3109037346338268
 40
0.340733737688888
 40
0.3503738889047631
 40
0.3594773326884569
 40
0.3675141498011666
 40
0.37449174630784
 40
0.3804164218699204
 40
0.385347332482832
 40
0.3892088474625157
 40
0.3923790510502174
 40
0.3964090318101598
 40
0.4014647275559964
 40
0.4075420298434509
 40
0.4146277602271672
 40
0.4221748356035693
 40
0.4467648510703209
 40
0.4726641320019044
 40
0.4968707002093637
 40
0.5213773381619036
 40
0.5457804001863654
 40
0.570092377692322
 40
0.5931233374450547
 40
0.6158755912954
 40
0.6373722353794479
 40
0.6575101032374236
 40
0.6763043778408478
 40
0.6940391657752936
 40
0.7041752679414434
 40
0.714080777438929
 40
0.7240046616172239
 40
0.734975905428497
 40
0.7471079097840199
 40
0.7604022365870072
 40
0.7748613676396126
 40
0.7898349201783534
 40
0.8091556665842422
 40
0.8277328820382713
 40
0.8455683468608761
 40
0.8627112921988913
 40
0.8805339572815827
 40
0.8996967416217323
 40
0.9157156797929892
 40
0.9326351201490164
 40
0.9505125277083771
 40
0.9693266725868457
 40
0.9890393151090724
 40
1.0
 40
1.0
 40
1.0
 40
1.0
 10
791.6444377623866
 20
689.0387989585295
 30
0.0
 10
792.5764678428526
 20
689.0393384725724
 30
0.0
 10
794.3958274093959
 20
689.0403898624932
 30
0.0
 10
797.4515451270851
 20
689.0421555351722
 30
0.0
 10
800.5930957770355
 20
689.0439232154876
 30
0.0
 10
803.6375793801571
 20
689.0455628497842
 30
0.0
 10
806.5601990133355
 20
689.0470352081087
 30
0.0
 10
809.3711701776032
 20
689.0483266558166
 30
0.0
 10
812.0896091972994
 20
689.0494290709136
 30
0.0
 10
814.7917514155439
 20
689.0503534527157
 30
0.0
 10
817.5690631103695
 20
689.0510933615614
 30
0.0
 10
820.4736720479784
 20
689.0515923935329
 30
0.0
 10
823.49859708692
 20
689.0517589420346
 30
0.0
 10
826.614874630519
 20
689.0514908770442
 30
0.0
 10
829.8117611041584
 20
689.0506776003838
 30
0.0
 10
833.1944715167914
 20
689.0491473802385
 30
0.0
 10
836.7496352304458
 20
689.0466766401145
 30
0.0
 10
839.5664843486892
 20
689.0438943855302
 30
0.0
 10
841.5327480123633
 20
689.0415425716341
 30
0.0
 10
842.6047783915001
 20
689.0401522293263
 30
0.0
 10
843.5603031374076
 20
689.0388243444195
 30
0.0
 10
844.3822453324136
 20
689.0376153409018
 30
0.0
 10
845.0766355064123
 20
689.036545673916
 30
0.0
 10
845.6457639497164
 20
689.035635877635
 30
0.0
 10
846.1057745539217
 20
689.0348790154906
 30
0.0
 10
846.5292728844433
 20
689.0341665118589
 30
0.0
 10
846.9965913515416
 20
689.0333626470215
 30
0.0
 10
847.571426332988
 20
689.0323467343002
 30
0.0
 10
848.2571383155165
 20
689.0310958645338
 30
0.0
 10
849.0296512828481
 20
689.0296357425935
 30
0.0
 10
850.4789885282303
 20
689.026793935738
 30
0.0
 10
852.5794055804288
 20
689.0223587979028
 30
0.0
 10
855.1895910603508
 20
689.01635156123
 30
0.0
 10
857.6995447832652
 20
689.010255726939
 30
0.0
 10
860.0686173412593
 20
689.0043849220542
 30
0.0
 10
862.3500269740337
 20
688.9988157124235
 30
0.0
 10
864.4941734933802
 20
688.9938505206609
 30
0.0
 10
866.500712922248
 20
688.989621298829
 30
0.0
 10
868.34331642676
 20
688.9862468891962
 30
0.0
 10
870.0253255521155
 20
688.9837166515302
 30
0.0
 10
871.5328415747364
 20
688.9820003086325
 30
0.0
 10
872.8849705162631
 20
688.980985165261
 30
0.0
 10
873.9513807510247
 20
688.9806097224579
 30
0.0
 10
874.7849322901269
 20
688.9805865423323
 30
0.0
 10
875.4294114922286
 20
688.9807267128454
 30
0.0
 10
876.0750638860479
 20
688.9810308007383
 30
0.0
 10
876.746528443961
 20
688.9815338917307
 30
0.0
 10
877.4603303001866
 20
688.9822987134758
 30
0.0
 10
878.2100352188706
 20
688.9833824249242
 30
0.0
 10
878.974586250841
 20
688.9848204110407
 30
0.0
 10
879.7985604488032
 20
688.9867797428615
 30
0.0
 10
880.6294224052243
 20
688.9892856813245
 30
0.0
 10
881.4293156056873
 20
688.9923358260853
 30
0.0
 10
882.1362411896743
 20
688.995651435092
 30
0.0
 10
882.7421906238167
 20
688.9991479837453
 30
0.0
 10
883.4173974109306
 20
689.0034914343892
 30
0.0
 10
884.1407629978775
 20
689.0127465995104
 30
0.0
 10
884.8758281254236
 20
689.0339772080591
 30
0.0
 10
885.6278723919895
 20
689.0756044365139
 30
0.0
 10
886.4767193870869
 20
689.1617323946602
 30
0.0
 10
887.3676532528099
 20
689.3283594864758
 30
0.0
 10
888.1584211841018
 20
689.5552368165279
 30
0.0
 10
888.5287139092826
 20
689.7799595921485
 30
0.0
 10
888.6843711596252
 20
689.8754160116762
 30
0.0
  0
SPLINE
  5
167
330
13C
100
AcDbEntity
  8
visible
  6
Continuous
 62
     5
100
AcDbSpline
210
0.0
220
0.0
230
1.0
 70
     8
 71
     3
 72
    35
 73
    31
 74
     0
 42
0.000000001
 43
0.0000000001
 40
0.0
 40
0.0
 40
0.0
 40
0.0
 40
0.0319102867393943
 40
0.0815893874677175
 40
0.1291020687012322
 40
0.1745375058001645
 40
0.2179775053618918
 40
0.2594971122638027
 40
0.2991651866765437
 40
0.3370449452790396
 40
0.3748735957195998
 40
0.410864533076334
 40
0.4450739176752733
 40
0.4775532697358241
 40
0.5083498911072669
 40
0.5375072393004203
 40
0.565065257865361
 40
0.5910606673840074
 40
0.6155272213330599
 40
0.6384959308928287
 40
0.6599952624861318
 40
0.6803449058260935
 40
0.7288266526296538
 40
0.7784333603479922
 40
0.8149794814038024
 40
0.8520698401520761
 40
0.8896866756228913
 40
0.9278127398052409
 40
0.9664313612099652
 40
1.0
 40
1.0
 40
1.0
 40
1.0
 10
653.9674769005326
 20
689.0378405664788
 30
0.0
 10
655.5397065608365
 20
689.0362539015819
 30
0.0
 10
658.9462175273954
 20
689.0328590226112
 30
0.0
 10
664.869020740106
 20
689.0300944773209
 30
0.0
 10
671.2213229228254
 20
689.0285860020402
 30
0.0
 10
677.341913880463
 20
689.0281484528144
 30
0.0
 10
683.177964187248
 20
689.0281489995472
 30
0.0
 10
688.7537225286534
 20
689.0282634422226
 30
0.0
 10
694.0734738178736
 20
689.0283021164049
 30
0.0
 10
699.2208161181569
 20
689.0281825725449
 30
0.0
 10
704.1951928902629
 20
689.0278788460214
 30
0.0
 10
708.9961529019864
 20
689.0274057859901
 30
0.0
 10
713.5489184100333
 20
689.0268166101051
 30
0.0
 10
717.8606349747922
 20
689.0261660996845
 30
0.0
 10
721.9380848291629
 20
689.0255061320227
 30
0.0
 10
725.7877130459008
 20
689.0248804147565
 30
0.0
 10
729.4156430632551
 20
689.0243221983834
 30
0.0
 10
732.8276895653054
 20
689.0238539226976
 30
0.0
 10
736.0293693313545
 20
689.0234880572606
 30
0.0
 10
739.0259044536967
 20
689.023228552522
 30
0.0
 10
741.8349645525227
 20
689.0230719359037
 30
0.0
 10
745.7378735788892
 20
689.0229823541589
 30
0.0
 10
750.828532529813
 20
689.023167733813
 30
0.0
 10
756.5662839747882
 20
689.023934394463
 30
0.0
 10
761.7753825780018
 20
689.0250958254555
 30
0.0
 10
766.4389995455239
 20
689.0264862192372
 30
0.0
 10
771.1373066982367
 20
689.0282275972103
 30
0.0
 10
775.8208792122246
 20
689.0302727360153
 30
0.0
 10
780.4140903851352
 20
689.0325361991399
 30
0.0
 10
783.1098707706599
 20
689.0339980166734
 30
0.0
 10
784.5937623423791
 20
689.0348086280931
 30
0.0
  0
ARC
  5
168
330
13C
100
AcDbEntity
  8
visible
  6
Continuous
 62
     5
100
AcDbCircle
 10
885.1185007018
 20
693.4113193688
 30
0.0
 40
5.383076360546906
100
AcDbArc
 50
334.6967317713
 51
353.9978726357
  0
ARC
  5
169
330
13C
100
AcDbEntity
  8
visible
  6
Continuous
 62
     5
100
AcDbCircle
 10
889.3476794907
 20
769.7870634774
 30
0.0
 40
69.88471089592069
100
AcDbArc
 50
258.9708592847
 51
261.0022759431
  0
ARC
  5
16A
330
13C
100
AcDbEntity
  8
visible
  6
Continuous
 62
     5
100
AcDbCircle
 10
569.748198405
 20
-5503.1566510304
 30
0.0
 40
6207.827564568574
100
AcDbArc
 50
88.4626386876
 51
89.2246598553
  0
ARC
  5
16B
330
13C
100
AcDbEntity
  8
visible
  6
Continuous
 62
     5
100
AcDbCircle
 10
745.4256427611
 20
1893.7047702888
 30
0.0
 40
1191.308684589471
100
AcDbArc
 50
272.1553522251
 51
272.1888170695
  0
ARC
  5
16C
330
13C
100
AcDbEntity
  8
visible
  6
Continuous
 62
     5
100
AcDbCircle
 10
745.4256427611
 20
1893.7047702888
 30
0.0
 40
1191.308684589471
100
AcDbArc
 50
269.5904695764
 51
269.6103349473
  0
ARC
  5
16D
330
13C
100
AcDbEntity
  8
visible
  6
Continuous
 62
     5
100
AcDbCircle
 10
651.8140233408
 20
1851.6092545194
 30
0.0
 40
1147.50650110362
100
AcDbArc
 50
268.493564097
 51
270.0966720277
  0
ARC
  5
16E
330
13C
100
AcDbEntity
  8
visible
  6
Continuous
 62
     5
100
AcDbCircle
 10
745.5806850616
 20
1880.2928639663
 30
0.0
 40
1177.89845337003
100
AcDbArc
 50
269.5779013673
 51
272.1935878491
  0
LINE
  5
16F
330
13C
100
AcDbEntity
  8
visible
  6
Continuous
 62
     5
100
AcDbLine
 10
790.6086914385
 20
703.2559328587
 30
0.0
 11
790.3429631048
 21
703.2479878548
 31
0.0
  0
ARC
  5
170
330
13C
100
AcDbEntity
  8
visible
  6
Continuous
 62
     5
100
AcDbCircle
 10
709.2056771286
 20
3571.7911412565
 30
0.0
 40
2869.689999382534
100
AcDbArc
 50
271.6254978345
 51
271.7809587484
  0
ARC
  5
171
330
13C
100
AcDbEntity
  8
visible
  6
Continuous
 62
     5
100
AcDbCircle
 10
711.4222787898
 20
3538.7152837438
 30
0.0
 40
2836.561576773766
100
AcDbArc
 50
271.6409439837
 51
272.3269817141
  0
LINE
  5
172
330
13C
100
AcDbEntity
  8
visible
  6
Continuous
 62
     5
100
AcDbLine
 10
439.638014926
 20
705.5935222204
 30
0.0
 11
439.3832369476
 21
705.5935222204
 31
0.0
  0
ARC
  5
173
330
13C
100
AcDbEntity
  8
visible
  6
Continuous
 62
     5
100
AcDbCircle
 10
599.823798967
 20
679.3876273896
 30
0.0
 40
162.5666719387214
100
AcDbArc
 50
165.9342271704
 51
170.7233922959
  0
ARC
  5
174
330
13C
100
AcDbEntity
  8
visible
  6
Continuous
 62
     5
100
AcDbCircle
 10
490.1086231704
 20
760.4709838159
 30
0.0
 40
57.84861242027997
100
AcDbArc
 50
250.9933989322
 51
251.0284677849
  0
ARC
  5
175
330
13C
100
AcDbEntity
  8
visible
  6
Continuous
 62
     5
100
AcDbCircle
 10
574.0805138337
 20
674.6493313621
 30
0.0
 40
107.385092220326
100
AcDbArc
 50
160.5238341892
 51
163.1565290717
  0
LINE
  5
176
330
13C
100
AcDbEntity
  8
visible
  6
Continuous
 62
     5
100
AcDbLine
 10
442.1318995757
 20
718.8969522941
 30
0.0
 11
442.2235452702
 21
719.2270117866
 31
0.0
  0
SPLINE
  5
177
330
13C
100
AcDbEntity
  8
visible
  6
Continuous
 62
     5
100
AcDbSpline
210
0.0
220
0.0
230
1.0
 70
     8
 71
     2
 72
     6
 73
     3
 74
     0
 42
0.000000001
 43
0.0000000001
 40
0.8389727017138585
 40
0.8389727017138585
 40
0.8389727017138585
 40
1.0
 40
1.0
 40
1.0
 10
439.6060723386046
 20
705.7111150658387
 30
0.0
 10
439.5692823683152
 20
705.7292111580113
 30
0.0
 10
439.6100903212522
 20
705.7476242140407
 30
0.0
  0
LINE
  5
178
330
13C
100
AcDbEntity
  8
visible
  6
Continuous
 62
     5
100
AcDbLine
 10
439.6097131256
 20
705.7476016131
 30
0.0
 11
439.3832324147
 21
705.5935222205
 31
0.0
  0
LINE
  5
179
330
13C
100
AcDbEntity
  8
visible
  6
Continuous
 62
     5
100
AcDbLine
 10
439.6197834819
 20
705.751397342
 30
0.0
 11
439.6104668498
 21
705.7476071406
 31
0.0
  0
SPLINE
  5
17A
330
13C
100
AcDbEntity
  8
visible
  6
Continuous
 62
     5
100
AcDbSpline
210
0.0
220
0.0
230
1.0
 70
     8
 71
     6
 72
    14
 73
     7
 74
     0
 42
0.000000001
 43
0.0000000001
 40
0.0
 40
0.0
 40
0.0
 40
0.0
 40
0.0
 40
0.0
 40
0.0
 40
1.0
 40
1.0
 40
1.0
 40
1.0
 40
1.0
 40
1.0
 40
1.0
 10
471.3022495368664
 20
705.7650254617645
 30
0.0
 10
469.9292762256917
 20
702.0796543129678
 30
0.0
 10
468.3108949436201
 20
698.5555976326821
 30
0.0
 10
466.07375731747
 20
694.9519076334549
 30
0.0
 10
462.1451277100137
 20
692.8503521675991
 30
0.0
 10
458.1883497043189
 20
691.994706004235
 30
0.0
 10
454.2661080716717
 20
692.28661348066
 30
0.0
  0
ARC
  5
17B
330
13C
100
AcDbEntity
  8
visible
  6
Continuous
 62
     5
100
AcDbCircle
 10
411.1255690393
 20
730.0965677498
 30
0.0
 40
32.94284964660259
100
AcDbArc
 50
340.7357283898
 51
348.7468251967
  0
SPLINE
  5
17C
330
13C
100
AcDbEntity
  8
visible
  6
Continuous
 62
     5
100
AcDbSpline
210
0.0
220
0.0
230
1.0
 70
     8
 71
     3
 72
    11
 73
     7
 74
     0
 42
0.000000001
 43
0.0000000001
 40
0.0000105957267178
 40
0.0000105957267178
 40
0.0000105957267178
 40
0.0000105957267178
 40
0.116292019778058
 40
0.2323140449875054
 40
0.2934629190659835
 40
0.3192136228774814
 40
0.3192136228774814
 40
0.3192136228774814
 40
0.3192136228774814
 10
445.9681236696918
 20
728.3907019716983
 30
0.0
 10
445.9210947248651
 20
728.2768551785242
 30
0.0
 10
445.8271212725
 20
728.0494450741152
 30
0.0
 10
445.6366198435269
 20
727.7477617226817
 30
0.0
 10
445.4828042121135
 20
727.527618060441
 30
0.0
 10
445.4123090909807
 20
727.429907681273
 30
0.0
 10
445.3910472319648
 20
727.4006155946613
 30
0.0
  0
SPLINE
  5
17D
330
13C
100
AcDbEntity
  8
visible
  6
Continuous
 62
     5
100
AcDbSpline
210
0.0
220
0.0
230
1.0
 70
     8
 71
     3
 72
     9
 73
     5
 74
     0
 42
0.000000001
 43
0.0000000001
 40
0.910596252902433
 40
0.910596252902433
 40
0.910596252902433
 40
0.910596252902433
 40
0.9216474692582397
 40
1.0
 40
1.0
 40
1.0
 40
1.0
 10
443.594668859666
 20
724.4464874133376
 30
0.0
 10
443.5853938705545
 20
724.4176065212165
 30
0.0
 10
443.5136008116769
 20
724.1799568062357
 30
0.0
 10
443.4716934609446
 20
723.9071129513386
 30
0.0
 10
443.4350749020011
 20
723.6679462995853
 30
0.0
  0
SPLINE
  5
17E
330
13C
100
AcDbEntity
  8
visible
  6
Continuous
 62
     5
100
AcDbSpline
210
0.0
220
0.0
230
1.0
 70
     8
 71
     5
 72
    12
 73
     6
 74
     0
 42
0.000000001
 43
0.0000000001
 40
0.0
 40
0.0
 40
0.0
 40
0.0
 40
0.0
 40
0.0
 40
1.0
 40
1.0
 40
1.0
 40
1.0
 40
1.0
 40
1.0
 10
478.3334685911932
 20
710.8287872490748
 30
0.0
 10
478.7890826544651
 20
717.2470787666524
 30
0.0
 10
478.9211465322742
 20
728.7716991438862
 30
0.0
 10
477.4764071839689
 20
730.47757391536
 30
0.0
 10
474.2919458092628
 20
732.5855453929277
 30
0.0
 10
473.0457460368158
 20
734.3456907617606
 30
0.0
  0
SPLINE
  5
17F
330
13C
100
AcDbEntity
  8
visible
  6
Continuous
 62
     5
100
AcDbSpline
210
0.0
220
0.0
230
1.0
 70
     8
 71
     5
 72
    12
 73
     6
 74
     0
 42
0.000000001
 43
0.0000000001
 40
0.0
 40
0.0
 40
0.0
 40
0.0
 40
0.0
 40
0.0
 40
1.0
 40
1.0
 40
1.0
 40
1.0
 40
1.0
 40
1.0
 10
439.6194462799886
 20
705.7524897582057
 30
0.0
 10
440.3979613602868
 20
706.2452817549672
 30
0.0
 10
443.0764570787299
 20
707.7500313511026
 30
0.0
 10
450.5202760301137
 20
711.0672998794923
 30
0.0
 10
462.3592067967668
 20
711.8089399713142
 30
0.0
 10
478.3334685911932
 20
710.8287872490748
 30
0.0
  0
ARC
  5
180
330
13C
100
AcDbEntity
  8
visible
  6
Continuous
 62
     5
100
AcDbCircle
 10
980.0565144308
 20
8714.0772703642
 30
0.0
 40
8018.95955203732
100
AcDbArc
 50
266.4128262038
 51
266.7144660509
  0
ARC
  5
181
330
13C
100
AcDbEntity
  8
visible
  6
Continuous
 62
     5
100
AcDbCircle
 10
645.0025171839
 20
2740.8300638313
 30
0.0
 40
2036.342932452354
100
AcDbArc
 50
266.4940081319
 51
270.2453922985
  0
SPLINE
  5
182
330
13C
100
AcDbEntity
  8
visible
  6
Continuous
 62
     5
100
AcDbSpline
210
0.0
220
0.0
230
1.0
 70
     8
 71
     3
 72
    14
 73
    10
 74
     0
 42
0.000000001
 43
0.0000000001
 40
0.0
 40
0.0
 40
0.0
 40
0.0
 40
0.1020879280239955
 40
0.2536253218378054
 40
0.3700730330827192
 40
0.499996741052498
 40
0.7372118638125063
 40
0.8776220139950118
 40
1.0
 40
1.0
 40
1.0
 40
1.0
 10
445.9681365257221
 20
728.3907330933379
 30
0.0
 10
446.0150081546424
 20
728.5210933077967
 30
0.0
 10
446.1314872214214
 20
728.8449529923358
 30
0.0
 10
446.2397980317801
 20
729.2142635386612
 30
0.0
 10
446.3161197409633
 20
729.5318789919598
 30
0.0
 10
446.3787885884338
 20
729.8346415545593
 30
0.0
 10
446.429496236367
 20
730.0543903579445
 30
0.0
 10
446.489952765461
 20
730.2046786028574
 30
0.0
 10
446.5029600324094
 20
730.2297153025377
 30
0.0
 10
446.5090173195551
 20
730.2413747036107
 30
0.0
  0
SPLINE
  5
183
330
13C
100
AcDbEntity
  8
visible
  6
Continuous
 62
     5
100
AcDbSpline
210
0.0
220
0.0
230
1.0
 70
     8
 71
     5
 72
    12
 73
     6
 74
     0
 42
0.000000001
 43
0.0000000001
 40
0.0
 40
0.0
 40
0.0
 40
0.0
 40
0.0
 40
0.0
 40
0.7215187734902051
 40
0.7215187734902051
 40
0.7215187734902051
 40
0.7215187734902051
 40
0.7215187734902051
 40
0.7215187734902051
 10
469.0661783305755
 20
735.9291112067114
 30
0.0
 10
463.8334553424487
 20
735.7788851669512
 30
0.0
 10
459.8360385686573
 20
735.6729640678685
 30
0.0
 10
456.0743242665033
 20
735.6322035067562
 30
0.0
 10
452.8302181654657
 20
735.0721677752088
 30
0.0
 10
450.2876383419417
 20
733.8031667241629
 30
0.0
  0
SPLINE
  5
184
330
13C
100
AcDbEntity
  8
0
  6
Continuous
 62
     5
100
AcDbSpline
210
0.0
220
0.0
230
1.0
 70
     8
 71
     5
 72
    12
 73
     6
 74
     0
 42
0.000000001
 43
0.0000000001
 40
0.9794492046264243
 40
0.9794492046264243
 40
0.9794492046264243
 40
0.9794492046264243
 40
0.9794492046264243
 40
0.9794492046264243
 40
1.0
 40
1.0
 40
1.0
 40
1.0
 40
1.0
 40
1.0
 10
446.7074712696555
 20
730.580337215647
 30
0.0
 10
446.6664886884257
 20
730.513694745875
 30
0.0
 10
446.6261536425031
 20
730.4464719190295
 30
0.0
 10
446.5864646892983
 20
730.3786738264482
 30
0.0
 10
446.547419997168
 20
730.3103060545561
 30
0.0
 10
446.5090173195551
 20
730.2413747036107
 30
0.0
  0
LINE
  5
185
330
13C
100
AcDbEntity
  8
visible
  6
Continuous
 62
     5
100
AcDbLine
 10
889.9744654125
 20
704.5058079374
 30
0.0
 11
653.723950931
 21
704.5058079374
 31
0.0
  0
SPLINE
  5
186
330
13C
100
AcDbEntity
  8
visible
  6
Continuous
 62
     5
100
AcDbSpline
210
0.0
220
0.0
230
1.0
 70
     8
 71
     3
 72
     8
 73
     4
 74
     0
 42
0.000000001
 43
0.0000000001
 40
0.0
 40
0.0
 40
0.0
 40
0.0
 40
1.0
 40
1.0
 40
1.0
 40
1.0
 10
653.6999506227626
 20
735.6044254503281
 30
0.0
 10
592.2838502760364
 20
737.857766886099
 30
0.0
 10
530.7392595119744
 20
737.6996812840313
 30
0.0
 10
469.0661783305755
 20
735.9291112067114
 30
0.0
  0
SPLINE
  5
187
330
13C
100
AcDbEntity
  8
visible
  6
Continuous
 62
     5
100
AcDbSpline
210
0.0
220
0.0
230
1.0
 70
     8
 71
     5
 72
    12
 73
     6
 74
     0
 42
0.000000001
 43
0.0000000001
 40
0.0
 40
0.0
 40
0.0
 40
0.0
 40
0.0
 40
0.0
 40
1.0
 40
1.0
 40
1.0
 40
1.0
 40
1.0
 40
1.0
 10
889.9744654124966
 20
704.505807937425
 30
0.0
 10
889.7396367319606
 20
709.0691558457611
 30
0.0
 10
889.3701633184126
 20
715.5568846145584
 30
0.0
 10
860.7645902361866
 20
719.7714269094574
 30
0.0
 10
843.9165677560876
 20
721.5693664780848
 30
0.0
 10
830.9654667326864
 20
722.8996917986407
 30
0.0
  0
SPLINE
  5
188
330
13C
100
AcDbEntity
  8
visible
  6
Continuous
 62
     5
100
AcDbSpline
210
0.0
220
0.0
230
1.0
 70
     8
 71
     3
 72
     8
 73
     4
 74
     0
 42
0.000000001
 43
0.0000000001
 40
0.0
 40
0.0
 40
0.0
 40
0.0
 40
1.0
 40
1.0
 40
1.0
 40
1.0
 10
830.9654667326864
 20
722.8996917986407
 30
0.0
 10
771.9128624128548
 20
728.9655216172401
 30
0.0
 10
712.8243570428801
 20
733.3553500209962
 30
0.0
 10
653.6999506227626
 20
735.6044254503281
 30
0.0
  0
ARC
  5
189
330
13C
100
AcDbEntity
  8
visible
  6
Continuous
 62
     5
100
AcDbCircle
 10
456.4999417389
 20
708.8542977077
 30
0.0
 40
17.18406755772638
100
AcDbArc
 50
190.4271189141
 51
227.7686576767
  0
ARC
  5
18A
330
13C
100
AcDbEntity
  8
visible
  6
Continuous
 62
     5
100
AcDbCircle
 10
455.4067303684
 20
708.0920516569
 30
0.0
 40
15.88767553683495
100
AcDbArc
 50
228.840257513
 51
265.8735225954
  0
SPLINE
  5
18B
330
13C
100
AcDbEntity
  8
visible
  6
Continuous
 62
     5
100
AcDbSpline
210
0.0
220
0.0
230
1.0
 70
     8
 71
     3
 72
    20
 73
    16
 74
     0
 42
0.000000001
 43
0.0000000001
 40
0.0
 40
0.0
 40
0.0
 40
0.0
 40
0.0546166429512391
 40
0.1144375365373362
 40
0.1795531158562878
 40
0.2499462917081669
 40
0.325521302631506
 40
0.406187803014982
 40
0.470053507785974
 40
0.5368445913203934
 40
0.6066377831764506
 40
0.6794826948761805
 40
0.7812673393192939
 40
0.8881226535446876
 40
1.0
 40
1.0
 40
1.0
 40
1.0
 10
454.2634791032932
 20
692.2455627552802
 30
0.0
 10
454.7352521439855
 20
692.2196632223847
 30
0.0
 10
455.5702991722475
 20
692.1791449576742
 30
0.0
 10
457.0112591709627
 20
692.2548902368883
 30
0.0
 10
458.524793807591
 20
692.4785376092763
 30
0.0
 10
460.1378496193043
 20
692.8960904039051
 30
0.0
 10
461.8018263567216
 20
693.5450303021719
 30
0.0
 10
463.3247143914088
 20
694.3794458104719
 30
0.0
 10
464.6781625952787
 20
695.3481904386438
 30
0.0
 10
465.8580437395478
 20
696.3976879262883
 30
0.0
 10
466.9690566853413
 20
697.6161806984123
 30
0.0
 10
468.1193110845835
 20
699.1617913554713
 30
0.0
 10
469.245036937182
 20
701.059315800646
 30
0.0
 10
470.3425365342404
 20
703.385395033735
 30
0.0
 10
470.9225026703834
 20
704.8700466189806
 30
0.0
 10
471.2679165883088
 20
705.7741554382957
 30
0.0
  0
SPLINE
  5
18C
330
13C
100
AcDbEntity
  8
visible
  6
Continuous
 62
     5
100
AcDbSpline
210
0.0
220
0.0
230
1.0
 70
     8
 71
     3
 72
    24
 73
    20
 74
     0
 42
0.000000001
 43
0.0000000001
 40
0.2448944038109969
 40
0.2448944038109969
 40
0.2448944038109969
 40
0.2448944038109969
 40
0.2594274399401654
 40
0.3277153510877728
 40
0.3952077954267829
 40
0.4568822253003217
 40
0.5128623855729196
 40
0.5632927283367919
 40
0.6210920243761187
 40
0.670076620388633
 40
0.7106477833162667
 40
0.7432057999574311
 40
0.7681417960044719
 40
0.7903845413088586
 40
0.850153105306205
 40
0.9188529462338353
 40
0.9578927708644153
 40
0.9932921817678378
 40
1.0
 40
1.0
 40
1.0
 40
1.0
 10
445.6264829766013
 20
728.2579697851188
 30
0.0
 10
445.6239926094856
 20
728.2594099623747
 30
0.0
 10
445.6075684094566
 20
728.2638390312331
 30
0.0
 10
445.5546024998079
 20
728.2331857794106
 30
0.0
 10
445.4584001720922
 20
728.1472334132593
 30
0.0
 10
445.3623143814477
 20
728.0509907206512
 30
0.0
 10
445.2644271478385
 20
727.9388364036545
 30
0.0
 10
445.1588644468661
 20
727.8039155650122
 30
0.0
 10
445.0456628891963
 20
727.6433047304205
 30
0.0
 10
444.9249287510566
 20
727.4543180419422
 30
0.0
 10
444.8096501923654
 20
727.2589908689124
 30
0.0
 10
444.7038860999673
 20
727.0685274310174
 30
0.0
 10
444.5975383905403
 20
726.8671461833226
 30
0.0
 10
444.4382652931167
 20
726.5507826032638
 30
0.0
 10
444.2292775569621
 20
726.1008810324352
 30
0.0
 10
443.9924927510994
 20
725.5310797618145
 30
0.0
 10
443.7880608036413
 20
724.9887743446919
 30
0.0
 10
443.6658355479897
 20
724.6490130613455
 30
0.0
 10
443.6067817034829
 20
724.4735212305688
 30
0.0
 10
443.5958057925493
 20
724.4408781370739
 30
0.0
  0
SPLINE
  5
18D
330
13C
100
AcDbEntity
  8
visible
  6
Continuous
 62
     5
100
AcDbSpline
210
0.0
220
0.0
230
1.0
 70
     8
 71
     3
 72
    35
 73
    31
 74
     0
 42
0.000000001
 43
0.0000000001
 40
0.0878505270240951
 40
0.0878505270240951
 40
0.0878505270240951
 40
0.0878505270240951
 40
0.0881463022473338
 40
0.119167003464961
 40
0.1547251941026799
 40
0.197830740410399
 40
0.2353714142727515
 40
0.2714328960583045
 40
0.3042068307372957
 40
0.3395605069177658
 40
0.3652813300555196
 40
0.3918807774428504
 40
0.4231584736830802
 40
0.4550278808034665
 40
0.4854769118562192
 40
0.5101521896272536
 40
0.528883766836744
 40
0.5498323022770165
 40
0.5716018106687607
 40
0.5966646281498319
 40
0.6367599713970258
 40
0.680586932282659
 40
0.7211085819134788
 40
0.7479706470581562
 40
0.7744216977658717
 40
0.8002888174952358
 40
0.8259169351585257
 40
0.8689216014142422
 40
0.9259221366312717
 40
1.0
 40
1.0
 40
1.0
 40
1.0
 10
472.22186833219
 20
709.3781781315431
 30
0.0
 10
472.2218774857404
 20
709.378177235827
 30
0.0
 10
472.2229099602247
 20
709.3782327014898
 30
0.0
 10
472.2395036486058
 20
709.4125009952932
 30
0.0
 10
472.2896324208504
 20
709.5124698861888
 30
0.0
 10
472.3800388835176
 20
709.6801883394709
 30
0.0
 10
472.5140264609744
 20
709.8993330102836
 30
0.0
 10
472.6613509604866
 20
710.1106179998759
 30
0.0
 10
472.7958290756504
 20
710.2808213780921
 30
0.0
 10
472.9326072724451
 20
710.4345410074826
 30
0.0
 10
473.0647428107177
 20
710.5639498649714
 30
0.0
 10
473.1835878899284
 20
710.6682599207114
 30
0.0
 10
473.3276709109539
 20
710.7754064855164
 30
0.0
 10
473.4386576684349
 20
710.8381558116943
 30
0.0
 10
473.4628461810086
 20
710.8517725916822
 30
0.0
 10
473.4849216576208
 20
710.858082035231
 30
0.0
 10
473.4527395279163
 20
710.8533759266915
 30
0.0
 10
473.5461732682238
 20
710.870322486202
 30
0.0
 10
473.6130752920701
 20
710.8787932496748
 30
0.0
 10
473.8208009064344
 20
710.8986207975212
 30
0.0
 10
474.1310841277003
 20
710.9151006846774
 30
0.0
 10
474.5885172655198
 20
710.9253072779786
 30
0.0
 10
474.978807575052
 20
710.92532124637
 30
0.0
 10
475.2716775886066
 20
710.9236242280808
 30
0.0
 10
475.5777776856566
 20
710.9191815695017
 30
0.0
 10
475.9121349776722
 20
710.9113757204491
 30
0.0
 10
476.3615467155159
 20
710.8976087514379
 30
0.0
 10
476.9353238511399
 20
710.8768015972292
 30
0.0
 10
477.7361243767256
 20
710.8417914793001
 30
0.0
 10
478.2780169771935
 20
710.8133642956114
 30
0.0
 10
478.6423077002186
 20
710.7939749969663
 30
0.0
  0
ARC
  5
18E
330
13C
100
AcDbEntity
  8
visible
  6
Continuous
 62
     5
100
AcDbCircle
 10
432.1931594725
 20
-129.0144652481
 30
0.0
 40
841.0919881608869
100
AcDbArc
 50
86.4345855596
 51
86.8340548874
  0
LINE
  5
18F
330
13C
100
AcDbEntity
  8
visible
  6
Continuous
 62
     5
100
AcDbLine
 10
518.698425321
 20
708.3992509226
 30
0.0
 11
519.6477854593
 21
708.3452228826
 31
0.0
  0
ARC
  5
190
330
13C
100
AcDbEntity
  8
visible
  6
Continuous
 62
     5
100
AcDbCircle
 10
453.9985831124
 20
726.0732061583
 30
0.0
 40
8.570329847571449
100
AcDbArc
 50
116.5848546576
 51
147.6010920628
  0
ARC
  5
191
330
13C
100
AcDbEntity
  8
visible
  6
Continuous
 62
     5
100
AcDbCircle
 10
454.0508598601
 20
726.0228681792
 30
0.0
 40
8.642630200114416
100
AcDbArc
 50
115.8070091141
 51
117.4738666408
  0
SPLINE
  5
192
330
13C
100
AcDbEntity
  8
visible
  6
Continuous
 62
     5
100
AcDbSpline
210
0.0
220
0.0
230
1.0
 70
     8
 71
     3
 72
    20
 73
    16
 74
     0
 42
0.000000001
 43
0.0000000001
 40
0.0
 40
0.0
 40
0.0
 40
0.0
 40
0.0352263140266567
 40
0.0750815645429596
 40
0.119758837343861
 40
0.1695472151738439
 40
0.2245609856927288
 40
0.2847577902941357
 40
0.3499589895473886
 40
0.4441509216729827
 40
0.5457442351645592
 40
0.6535416788412498
 40
0.7661764796137976
 40
0.8821718304462381
 40
1.0
 40
1.0
 40
1.0
 40
1.0
 10
888.3922839057941
 20
709.0402072566941
 30
0.0
 10
888.1195168381746
 20
709.3433932496223
 30
0.0
 10
887.6246239363248
 20
709.8871593350349
 30
0.0
 10
886.6289076005596
 20
710.7065200403499
 30
0.0
 10
885.4674807956586
 20
711.5005311746309
 30
0.0
 10
884.099249459585
 20
712.2859452321367
 30
0.0
 10
882.5403712513122
 20
713.0528464225108
 30
0.0
 10
880.792944718471
 20
713.8005505465649
 30
0.0
 10
878.628536889064
 20
714.6158165950569
 30
0.0
 10
876.0155971614671
 20
715.4722702807264
 30
0.0
 10
872.9412840089794
 20
716.3478868500043
 30
0.0
 10
869.6467158912885
 20
717.1727214542846
 30
0.0
 10
866.206397762801
 20
717.9381302756937
 30
0.0
 10
862.5591902252952
 20
718.6660353511174
 30
0.0
 10
860.3136915604965
 20
719.0641224960924
 30
0.0
 10
858.9700450805083
 20
719.3000033481733
 30
0.0
  0
ARC
  5
193
330
13C
100
AcDbEntity
  8
visible
  6
Continuous
 62
     5
100
AcDbCircle
 10
866.0663002007
 20
692.1604996787
 30
0.0
 40
27.9888205596748
100
AcDbArc
 50
35.0175275179
 51
37.0913444359
  0
SPLINE
  5
194
330
13C
100
AcDbEntity
  8
visible
  6
Continuous
 62
     5
100
AcDbSpline
210
0.0
220
0.0
230
1.0
 70
     8
 71
     3
 72
    15
 73
    11
 74
     0
 42
0.000000001
 43
0.0000000001
 40
0.2449255663237558
 40
0.2449255663237558
 40
0.2449255663237558
 40
0.2449255663237558
 40
0.25946057489334
 40
0.3277577588994434
 40
0.3952593675606912
 40
0.4569421717762347
 40
0.5129299332152163
 40
0.563367123573354
 40
0.6211742677637919
 40
0.6701655149783178
 40
0.6701655149783178
 40
0.6701655149783178
 40
0.6701655149783178
 10
445.6264830861358
 20
728.2579699535754
 30
0.0
 10
445.6239927199483
 20
728.2594101325641
 30
0.0
 10
445.607568524551
 20
728.2638392125249
 30
0.0
 10
445.5546026167896
 20
728.2331859511747
 30
0.0
 10
445.4584002971503
 20
728.1472335983768
 30
0.0
 10
445.3623145137052
 20
728.0509909160413
 30
0.0
 10
445.2644272875559
 20
727.938836613251
 30
0.0
 10
445.1588645943598
 20
727.8039157921547
 30
0.0
 10
445.0456630449307
 20
727.6433049790406
 30
0.0
 10
444.9581705572658
 20
727.5063518807881
 30
0.0
 10
444.9146947442417
 20
727.4350337479784
 30
0.0
  0
SPLINE
  5
195
330
13C
100
AcDbEntity
  8
visible
  6
Continuous
 62
     5
100
AcDbSpline
210
0.0
220
0.0
230
1.0
 70
     8
 71
     3
 72
     8
 73
     4
 74
     0
 42
0.000000001
 43
0.0000000001
 40
0.9934250139441586
 40
0.9934250139441586
 40
0.9934250139441586
 40
0.9934250139441586
 40
1.0
 40
1.0
 40
1.0
 40
1.0
 10
443.6257075192789
 20
724.5294546512313
 30
0.0
 10
443.616379783622
 20
724.5020344096542
 30
0.0
 10
443.6071588133167
 20
724.474633603896
 30
0.0
 10
443.5964019114155
 20
724.4426439922087
 30
0.0
  0
SPLINE
  5
196
330
13C
100
AcDbEntity
  8
visible
  6
Continuous
 62
     5
100
AcDbSpline
210
0.0
220
0.0
230
1.0
 70
     8
 71
     3
 72
     8
 73
     4
 74
     0
 42
0.000000001
 43
0.0000000001
 40
0.0
 40
0.0
 40
0.0
 40
0.0
 40
0.0031279809483472
 40
0.0031279809483472
 40
0.0031279809483472
 40
0.0031279809483472
 10
888.3914220297237
 20
709.0411155655107
 30
0.0
 10
888.367201466473
 20
709.0680363149288
 30
0.0
 10
888.3433011769903
 20
709.0945777154977
 30
0.0
 10
888.3196727225502
 20
709.1207688448131
 30
0.0
  0
SPLINE
  5
197
330
13C
100
AcDbEntity
  8
visible
  6
Continuous
 62
     5
100
AcDbSpline
210
0.0
220
0.0
230
1.0
 70
     8
 71
     3
 72
     8
 73
     4
 74
     0
 42
0.000000001
 43
0.0000000001
 40
0.8821679379817174
 40
0.8821679379817174
 40
0.8821679379817174
 40
0.8821679379817174
 40
1.0
 40
1.0
 40
1.0
 40
1.0
 10
862.6316349649759
 20
718.6392556777496
 30
0.0
 10
861.4452382648193
 20
718.8635193383597
 30
0.0
 10
860.3136899713364
 20
719.0641227843621
 30
0.0
 10
858.9700450805195
 20
719.3000033481713
 30
0.0
  0
ARC
  5
198
330
13C
100
AcDbEntity
  8
visible
  6
Continuous
 62
     5
100
AcDbCircle
 10
867.6607902172
 20
693.3169024802
 30
0.0
 40
26.01941529890381
100
AcDbArc
 50
34.94683026
 51
35.1718369983
  0
ARC
  5
199
330
13C
100
AcDbEntity
  8
visible
  6
Continuous
 62
     5
100
AcDbCircle
 10
867.6607902172
 20
693.3169024802
 30
0.0
 40
26.01941529890381
100
AcDbArc
 50
36.2594099373
 51
37.1803677507
  0
LINE
  5
19A
330
13C
100
AcDbEntity
  8
visible
  6
Continuous
 62
     5
100
AcDbLine
 10
449.9753523746
 20
692.8899145703
 30
0.0
 11
449.9753523746
 21
692.0330735434
 31
0.0
  0
LINE
  5
19B
330
13C
100
AcDbEntity
  8
visible
  6
Continuous
 62
     5
100
AcDbLine
 10
459.9753523746
 20
692.0330735434
 30
0.0
 11
459.9753523746
 21
692.8866266092
 31
0.0
  0
LINE
  5
19C
330
13C
100
AcDbEntity
  8
visible
  6
Continuous
 62
     5
100
AcDbLine
 10
478.0753523746
 20
685.0330735434
 30
0.0
 11
431.8753523746
 21
685.0330735434
 31
0.0
  0
LINE
  5
19D
330
13C
100
AcDbEntity
  8
visible
  6
Continuous
 62
     5
100
AcDbLine
 10
475.9753523746
 20
692.0330735434
 30
0.0
 11
455.1467398133
 21
692.0330735434
 31
0.0
  0
LINE
  5
19E
330
13C
100
AcDbEntity
  8
visible
  6
Continuous
 62
     5
100
AcDbLine
 10
454.8040262127
 20
692.0330735434
 30
0.0
 11
433.9753523746
 21
692.0330735434
 31
0.0
  0
LINE
  5
19F
330
13C
100
AcDbEntity
  8
visible
  6
Continuous
 62
     5
100
AcDbLine
 10
431.8753523746
 20
689.9330735434
 30
0.0
 11
431.8753523746
 21
685.0330735434
 31
0.0
  0
LINE
  5
1A0
330
13C
100
AcDbEntity
  8
visible
  6
Continuous
 62
     5
100
AcDbLine
 10
478.0753523746
 20
685.0330735434
 30
0.0
 11
478.0753523746
 21
689.9330735434
 31
0.0
  0
ARC
  5
1A1
330
13C
100
AcDbEntity
  8
visible
  6
Continuous
 62
     5
100
AcDbCircle
 10
433.9753523746
 20
689.9330735434
 30
0.0
 40
2.100000000000005
100
AcDbArc
 50
90.0
 51
180.0
  0
ARC
  5
1A2
330
13C
100
AcDbEntity
  8
visible
  6
Continuous
 62
     5
100
AcDbCircle
 10
475.9753523746
 20
689.9330735434
 30
0.0
 40
2.100000000000001
100
AcDbArc
 50
0.0
 51
90.0
  0
LINE
  5
1A3
330
13C
100
AcDbEntity
  8
visible
  6
Continuous
 62
     5
100
AcDbLine
 10
452.5753523746
 20
627.3330735434
 30
0.0
 11
457.3753523746
 21
627.3330735434
 31
0.0
  0
LINE
  5
1A4
330
13C
100
AcDbEntity
  8
visible
  6
Continuous
 62
     5
100
AcDbLine
 10
457.9753523746
 20
627.9330735434
 30
0.0
 11
451.9753523746
 21
627.9330735434
 31
0.0
  0
LINE
  5
1A5
330
13C
100
AcDbEntity
  8
visible
  6
Continuous
 62
     5
100
AcDbLine
 10
451.9753523746
 20
684.3330735434
 30
0.0
 11
451.9753523746
 21
638.8330735434
 31
0.0
  0
LINE
  5
1A6
330
13C
100
AcDbEntity
  8
visible
  6
Continuous
 62
     5
100
AcDbLine
 10
451.9753523746
 20
633.8330735434
 30
0.0
 11
451.9753523746
 21
627.9330735434
 31
0.0
  0
LINE
  5
1A7
330
13C
100
AcDbEntity
  8
visible
  6
Continuous
 62
     5
100
AcDbLine
 10
457.9753523746
 20
627.9330735434
 30
0.0
 11
457.9753523746
 21
633.8330735434
 31
0.0
  0
LINE
  5
1A8
330
13C
100
AcDbEntity
  8
visible
  6
Continuous
 62
     5
100
AcDbLine
 10
457.9753523746
 20
638.8330735434
 30
0.0
 11
457.9753523746
 21
684.3330735434
 31
0.0
  0
LINE
  5
1A9
330
13C
100
AcDbEntity
  8
visible
  6
Continuous
 62
     5
100
AcDbLine
 10
451.9753523746
 20
627.9330735434
 30
0.0
 11
452.5753523746
 21
627.3330735434
 31
0.0
  0
LINE
  5
1AA
330
13C
100
AcDbEntity
  8
visible
  6
Continuous
 62
     5
100
AcDbLine
 10
457.3753523746
 20
627.3330735434
 30
0.0
 11
457.9753523746
 21
627.9330735434
 31
0.0
  0
LINE
  5
1AB
330
13C
100
AcDbEntity
  8
visible
  6
Continuous
 62
     5
100
AcDbLine
 10
477.2253523746
 20
684.3330735434
 30
0.0
 11
432.7253523746
 21
684.3330735434
 31
0.0
  0
LINE
  5
1AC
330
13C
100
AcDbEntity
  8
visible
  6
Continuous
 62
     5
100
AcDbLine
 10
477.2253523746
 20
684.3330735434
 30
0.0
 11
477.2253523746
 21
685.0330735434
 31
0.0
  0
LINE
  5
1AD
330
13C
100
AcDbEntity
  8
visible
  6
Continuous
 62
     5
100
AcDbLine
 10
432.7253523746
 20
685.0330735434
 30
0.0
 11
432.7253523746
 21
684.3330735434
 31
0.0
  0
LINE
  5
1AE
330
13C
100
AcDbEntity
  8
visible
  6
Continuous
 62
     5
100
AcDbLine
 10
450.3753523746
 20
638.9330735434
 30
0.0
 11
450.3753523746
 21
638.8330735434
 31
0.0
  0
LINE
  5
1AF
330
13C
100
AcDbEntity
  8
visible
  6
Continuous
 62
     5
100
AcDbLine
 10
459.5753523746
 20
638.9330735434
 30
0.0
 11
459.5753523746
 21
638.8330735434
 31
0.0
  0
ARC
  5
1B0
330
13C
100
AcDbEntity
  8
visible
  6
Continuous
 62
     5
100
AcDbCircle
 10
457.4753523746
 20
638.9330735434
 30
0.0
 40
2.10000000000004
100
AcDbArc
 50
313.6028189727
 51
0.0
  0
LINE
  5
1B1
330
13C
100
AcDbEntity
  8
visible
  6
Continuous
 62
     5
100
AcDbLine
 10
451.8753523746
 20
638.9330735434
 30
0.0
 11
451.8753523746
 21
643.0216010191
 31
0.0
  0
LINE
  5
1B2
330
13C
100
AcDbEntity
  8
visible
  6
Continuous
 62
     5
100
AcDbLine
 10
450.3753523746
 20
638.9330735434
 30
0.0
 11
450.3753523746
 21
643.0216010191
 31
0.0
  0
ARC
  5
1B3
330
13C
100
AcDbEntity
  8
visible
  6
Continuous
 62
     5
100
AcDbCircle
 10
457.4753523746
 20
638.9330735434
 30
0.0
 40
0.5999999999999999
100
AcDbArc
 50
313.6028189727
 51
0.0
  0
ARC
  5
1B4
330
13C
100
AcDbEntity
  8
visible
  6
Continuous
 62
     5
100
AcDbCircle
 10
454.9753523746
 20
641.5580735434
 30
0.0
 40
4.225000000000015
100
AcDbArc
 50
226.3971810273
 51
313.6028189727
  0
ARC
  5
1B5
330
13C
100
AcDbEntity
  8
visible
  6
Continuous
 62
     5
100
AcDbCircle
 10
452.4753523746
 20
638.9330735434
 30
0.0
 40
0.6000000000000126
100
AcDbArc
 50
180.0
 51
226.3971810273
  0
LINE
  5
1B6
330
13C
100
AcDbEntity
  8
visible
  6
Continuous
 62
     5
100
AcDbLine
 10
458.0753523746
 20
638.9330735434
 30
0.0
 11
459.5753523746
 21
638.9330735434
 31
0.0
  0
ARC
  5
1B7
330
13C
100
AcDbEntity
  8
visible
  6
Continuous
 62
     5
100
AcDbCircle
 10
454.9753523746
 20
641.5580735434
 30
0.0
 40
5.725000000000003
100
AcDbArc
 50
226.3971810273
 51
313.6028189727
  0
ARC
  5
1B8
330
13C
100
AcDbEntity
  8
visible
  6
Continuous
 62
     5
100
AcDbCircle
 10
452.4753523746
 20
638.9330735434
 30
0.0
 40
2.100000000000002
100
AcDbArc
 50
180.0
 51
226.3971810273
  0
LINE
  5
1B9
330
13C
100
AcDbEntity
  8
visible
  6
Continuous
 62
     5
100
AcDbLine
 10
450.3753523746
 20
638.9330735434
 30
0.0
 11
451.8753523746
 21
638.9330735434
 31
0.0
  0
LINE
  5
1BA
330
13C
100
AcDbEntity
  8
visible
  6
Continuous
 62
     5
100
AcDbLine
 10
459.5753523746
 20
638.9330735434
 30
0.0
 11
459.5753523746
 21
643.0216010191
 31
0.0
  0
LINE
  5
1BB
330
13C
100
AcDbEntity
  8
visible
  6
Continuous
 62
     5
100
AcDbLine
 10
458.0753523746
 20
644.3330735434
 30
0.0
 11
459.5753523746
 21
644.3330735434
 31
0.0
  0
LINE
  5
1BC
330
13C
100
AcDbEntity
  8
visible
  6
Continuous
 62
     5
100
AcDbLine
 10
459.5753523746
 20
644.3330735434
 30
0.0
 11
459.5753523746
 21
643.0216010191
 31
0.0
  0
LINE
  5
1BD
330
13C
100
AcDbEntity
  8
visible
  6
Continuous
 62
     5
100
AcDbLine
 10
458.0753523746
 20
643.0216010191
 30
0.0
 11
458.0753523746
 21
638.9330735434
 31
0.0
  0
LINE
  5
1BE
330
13C
100
AcDbEntity
  8
visible
  6
Continuous
 62
     5
100
AcDbLine
 10
458.0753523746
 20
643.0216010191
 30
0.0
 11
458.0753523746
 21
644.3330735434
 31
0.0
  0
LINE
  5
1BF
330
13C
100
AcDbEntity
  8
visible
  6
Continuous
 62
     5
100
AcDbLine
 10
450.3753523746
 20
644.3330735434
 30
0.0
 11
451.8753523746
 21
644.3330735434
 31
0.0
  0
LINE
  5
1C0
330
13C
100
AcDbEntity
  8
visible
  6
Continuous
 62
     5
100
AcDbLine
 10
451.8753523746
 20
644.3330735434
 30
0.0
 11
451.8753523746
 21
643.0216010191
 31
0.0
  0
LINE
  5
1C1
330
13C
100
AcDbEntity
  8
visible
  6
Continuous
 62
     5
100
AcDbLine
 10
450.3753523746
 20
643.0216010191
 30
0.0
 11
450.3753523746
 21
644.3330735434
 31
0.0
  0
LINE
  5
1C2
330
13C
100
AcDbEntity
  8
visible
  6
Continuous
 62
     5
100
AcDbLine
 10
451.8753523746
 20
644.3330735434
 30
0.0
 11
451.9753523746
 21
644.3330735434
 31
0.0
  0
LINE
  5
1C3
330
13C
100
AcDbEntity
  8
visible
  6
Continuous
 62
     5
100
AcDbLine
 10
457.9753523746
 20
644.3330735434
 30
0.0
 11
458.0753523746
 21
644.3330735434
 31
0.0
  0
LINE
  5
1C4
330
13C
100
AcDbEntity
  8
visible
  6
Continuous
 62
     5
100
AcDbLine
 10
451.9753523746
 20
641.6330735434
 30
0.0
 11
451.8753523746
 21
641.3330735434
 31
0.0
  0
LINE
  5
1C5
330
13C
100
AcDbEntity
  8
visible
  6
Continuous
 62
     5
100
AcDbLine
 10
458.0753523746
 20
641.3330735434
 30
0.0
 11
457.9753523746
 21
641.6330735434
 31
0.0
  0
LINE
  5
1C6
330
13C
100
AcDbEntity
  8
visible
  6
Continuous
 62
     5
100
AcDbLine
 10
458.0669603529
 20
638.8330735434
 30
0.0
 11
451.8837443963
 21
638.8330735434
 31
0.0
  0
LINE
  5
1C7
330
13C
100
AcDbEntity
  8
visible
  6
Continuous
 62
     5
100
AcDbLine
 10
449.9753523746
 20
638.8330735434
 30
0.0
 11
450.3753523746
 21
638.8330735434
 31
0.0
  0
LINE
  5
1C8
330
13C
100
AcDbEntity
  8
visible
  6
Continuous
 62
     5
100
AcDbLine
 10
459.5753523746
 20
638.8330735434
 30
0.0
 11
459.9753523746
 21
638.8330735434
 31
0.0
  0
LINE
  5
1C9
330
13C
100
AcDbEntity
  8
visible
  6
Continuous
 62
     5
100
AcDbLine
 10
450.6672205289
 20
637.8650570508
 30
0.0
 11
450.6672205289
 21
635.5112728057
 31
0.0
  0
LINE
  5
1CA
330
13C
100
AcDbEntity
  8
visible
  6
Continuous
 62
     5
100
AcDbLine
 10
459.9753523746
 20
638.8330735434
 30
0.0
 11
459.9753523746
 21
635.5112728057
 31
0.0
  0
LINE
  5
1CB
330
13C
100
AcDbEntity
  8
visible
  6
Continuous
 62
     5
100
AcDbLine
 10
449.9753523746
 20
635.5112728057
 30
0.0
 11
449.9753523746
 21
638.8330735434
 31
0.0
  0
LINE
  5
1CC
330
13C
100
AcDbEntity
  8
visible
  6
Continuous
 62
     5
100
AcDbLine
 10
450.6672205289
 20
635.5112728057
 30
0.0
 11
449.9753523746
 21
635.5112728057
 31
0.0
  0
LINE
  5
1CD
330
13C
100
AcDbEntity
  8
visible
  6
Continuous
 62
     5
100
AcDbLine
 10
459.2834842203
 20
635.5112728057
 30
0.0
 11
459.2834842203
 21
637.8650570508
 31
0.0
  0
LINE
  5
1CE
330
13C
100
AcDbEntity
  8
visible
  6
Continuous
 62
     5
100
AcDbLine
 10
459.9753523746
 20
635.5112728057
 30
0.0
 11
459.9753523746
 21
634.16871494
 31
0.0
  0
LINE
  5
1CF
330
13C
100
AcDbEntity
  8
visible
  6
Continuous
 62
     5
100
AcDbLine
 10
459.9753523746
 20
635.5112728057
 30
0.0
 11
459.2834842203
 21
635.5112728057
 31
0.0
  0
SPLINE
  5
1D0
330
13C
100
AcDbEntity
  8
visible
  6
Continuous
 62
     5
100
AcDbSpline
210
0.0
220
0.0
230
1.0
 70
     8
 71
     3
 72
    20
 73
    16
 74
     0
 42
0.000000001
 43
0.0000000001
 40
0.0
 40
0.0
 40
0.0
 40
0.0
 40
0.2500000000000008
 40
0.2500000000000008
 40
0.3750000000000004
 40
0.3750000000000004
 40
0.5
 40
0.5
 40
0.6249999999999996
 40
0.6249999999999996
 40
0.6874999999999994
 40
0.6874999999999994
 40
0.7499999999999993
 40
0.7499999999999993
 40
1.0
 40
1.0
 40
1.0
 40
1.0
 10
459.2834842202846
 20
635.5112728057444
 30
0.0
 10
458.6178389847852
 20
635.1466856132114
 30
0.0
 10
457.9250109446439
 20
634.8132936872623
 30
0.0
 10
456.8495706655346
 20
634.4453526066698
 30
0.0
 10
456.4843243733073
 20
634.3448743619169
 30
0.0
 10
455.7349560747821
 20
634.2057622817506
 30
0.0
 10
455.3499940898762
 20
634.1684421419098
 30
0.0
 10
454.5921310554434
 20
634.1689877381004
 30
0.0
 10
454.2153040392067
 20
634.2058041849011
 30
0.0
 10
453.6528992216328
 20
634.3102695413468
 30
0.0
 10
453.4652186997049
 20
634.3534446818404
 30
0.0
 10
453.0964557488429
 20
634.4527624654477
 30
0.0
 10
452.9148032870163
 20
634.508939283674
 30
0.0
 10
452.0177810227038
 20
634.8166688932762
 30
0.0
 10
451.3348162586107
 20
635.1456172885516
 30
0.0
 10
450.6672205288694
 20
635.5112728057444
 30
0.0
  0
LINE
  5
1D1
330
13C
100
AcDbEntity
  8
visible
  6
Continuous
 62
     5
100
AcDbLine
 10
449.9753523746
 20
635.5112728057
 30
0.0
 11
449.9753523746
 21
634.16871494
 31
0.0
  0
LINE
  5
1D2
330
13C
100
AcDbEntity
  8
visible
  6
Continuous
 62
     5
100
AcDbLine
 10
459.5753523746
 20
633.8330735434
 30
0.0
 11
450.3753523746
 21
633.8330735434
 31
0.0
  0
LINE
  5
1D3
330
13C
100
AcDbEntity
  8
visible
  6
Continuous
 62
     5
100
AcDbLine
 10
449.9753523746
 20
634.1687133959
 30
0.0
 11
450.3753523746
 21
633.8330735434
 31
0.0
  0
LINE
  5
1D4
330
13C
100
AcDbEntity
  8
visible
  6
Continuous
 62
     5
100
AcDbLine
 10
459.5753523746
 20
633.8330735434
 30
0.0
 11
459.9753523746
 21
634.1687133959
 31
0.0
  0
ENDBLK
  5
1D6
330
13C
100
AcDbEntity
  8
0
100
AcDbBlockEnd
  0
BLOCK
  5
211
330
1D7
100
AcDbEntity
  8
0
100
AcDbBlockBegin
  2
SE2
 70
     0
 10
0.0
 20
0.0
 30
0.0
  3
SE2
  1
SE2
  0
LINE
  5
1D9
330
1D7
100
AcDbEntity
  8
visible
  6
Continuous
 62
     5
100
AcDbLine
 10
309.5437611301
 20
557.2941281201
 30
0.0
 11
309.5451343038
 21
555.301797454
 31
0.0
  0
ARC
  5
1DA
330
1D7
100
AcDbEntity
  8
visible
  6
Continuous
 62
     5
100
AcDbCircle
 10
173.6268076574
 20
552.9477861975
 30
0.0
 40
135.9864323529126
100
AcDbArc
 50
0.6859957644
 51
1.83157586
  0
LINE
  5
1DB
330
1D7
100
AcDbEntity
  8
visible
  6
Continuous
 62
     5
100
AcDbLine
 10
307.545217475
 20
557.2941280507
 30
0.0
 11
309.5437642741
 21
557.2941280507
 31
0.0
  0
LINE
  5
1DC
330
1D7
100
AcDbEntity
  8
visible
  6
Continuous
 62
     5
100
AcDbLine
 10
262.974481588
 20
557.2940491265
 30
0.0
 11
307.5452174756
 21
557.2941279554
 31
0.0
  0
LINE
  5
1DD
330
1D7
100
AcDbEntity
  8
visible
  6
Continuous
 62
     5
100
AcDbLine
 10
260.0146116198
 20
557.2937642643
 30
0.0
 11
262.9744815168
 21
557.2940491265
 31
0.0
  0
ARC
  5
1DE
330
1D7
100
AcDbEntity
  8
visible
  6
Continuous
 62
     5
100
AcDbCircle
 10
269.9443143305
 20
555.2026631448
 30
0.0
 40
12.5899318284914
100
AcDbArc
 50
170.5063292442
 51
176.3276220794
  0
SPLINE
  5
1DF
330
1D7
100
AcDbEntity
  8
visible
  6
Continuous
 62
     5
100
AcDbSpline
210
0.0
220
0.0
230
1.0
 70
     8
 71
     3
 72
    15
 73
    11
 74
     0
 42
0.000000001
 43
0.0000000001
 40
0.0
 40
0.0
 40
0.0
 40
0.0
 40
0.1417805619961846
 40
0.2718726044965133
 40
0.3913980338631066
 40
0.4999914048938601
 40
0.6014489877713404
 40
0.7186457860566039
 40
0.8511399453509643
 40
1.0
 40
1.0
 40
1.0
 40
1.0
 10
309.545135014855
 20
555.301797472459
 30
0.0
 10
309.5447247837797
 20
555.4563487554502
 30
0.0
 10
309.5439395390503
 20
555.7526606186108
 30
0.0
 10
309.4651226752462
 20
556.1750577904365
 30
0.0
 10
309.3032262487189
 20
556.534442271235
 30
0.0
 10
309.0785971863992
 20
556.8191550943417
 30
0.0
 10
308.7970322587971
 20
557.0431809950255
 30
0.0
 10
308.4464231539915
 20
557.2072366225743
 30
0.0
 10
308.0157011359942
 20
557.2930232095255
 30
0.0
 10
307.7080112933772
 20
557.2937457591306
 30
0.0
 10
307.5452174755875
 20
557.2941279610272
 30
0.0
  0
LINE
  5
1E0
330
1D7
100
AcDbEntity
  8
visible
  6
Continuous
 62
     5
100
AcDbLine
 10
259.8241581362
 20
557.2863126545
 30
0.0
 11
260.0120931498
 21
557.2937581206
 31
0.0
  0
LINE
  5
1E1
330
1D7
100
AcDbEntity
  8
visible
  6
Continuous
 62
     5
100
AcDbLine
 10
257.526816377
 20
557.2792297269
 30
0.0
 11
259.8241396281
 21
557.2865413843
 31
0.0
  0
LINE
  5
1E2
330
1D7
100
AcDbEntity
  8
visible
  6
Continuous
 62
     5
100
AcDbLine
 10
252.286078795
 20
553.8561548874
 30
0.0
 11
188.0021728876
 21
554.2210045732
 31
0.0
  0
ARC
  5
1E3
330
1D7
100
AcDbEntity
  8
visible
  6
Continuous
 62
     5
100
AcDbCircle
 10
252.3881948391
 20
561.8476555419
 30
0.0
 40
7.992197239004907
100
AcDbArc
 50
269.26791178
 51
290.224089873
  0
SPLINE
  5
1E4
330
1D7
100
AcDbEntity
  8
visible
  6
Continuous
 62
     5
100
AcDbSpline
210
0.0
220
0.0
230
1.0
 70
     8
 71
     3
 72
    21
 73
    17
 74
     0
 42
0.000000001
 43
0.0000000001
 40
0.0
 40
0.0
 40
0.0
 40
0.0
 40
0.0417340658260557
 40
0.0832974072447554
 40
0.1247372770676509
 40
0.1661015323251008
 40
0.2074384739258227
 40
0.2487966808838832
 40
0.3719381009887907
 40
0.4944560686587536
 40
0.6256171605568847
 40
0.7505632336483583
 40
0.814954076605273
 40
0.8777398684899009
 40
0.9393014379932476
 40
1.0
 40
1.0
 40
1.0
 40
1.0
 10
257.3802345032421
 20
556.0090635048207
 30
0.0
 10
257.3781852191952
 20
555.990732616622
 30
0.0
 10
257.3740968321471
 20
555.9541458344305
 30
0.0
 10
257.3585037414684
 20
555.8972120573646
 30
0.0
 10
257.3359810949893
 20
555.8388910709324
 30
0.0
 10
257.3058503526527
 20
555.7789879635095
 30
0.0
 10
257.2682967065745
 20
555.7174975695349
 30
0.0
 10
257.1935615414822
 20
555.612826124212
 30
0.0
 10
257.055932795203
 20
555.4594875908407
 30
0.0
 10
256.8101058154787
 20
555.2455307224517
 30
0.0
 10
256.4991106879085
 20
555.0195023944166
 30
0.0
 10
256.176980241917
 20
554.8233501689504
 30
0.0
 10
255.8893758833904
 20
554.6700540338752
 30
0.0
 10
255.6561699987969
 20
554.5572156171728
 30
0.0
 10
255.4119655130241
 20
554.4492477685013
 30
0.0
 10
255.2376036766327
 20
554.3817208527187
 30
0.0
 10
255.151039525957
 20
554.3481951651385
 30
0.0
  0
LINE
  5
1E5
330
1D7
100
AcDbEntity
  8
visible
  6
Continuous
 62
     5
100
AcDbLine
 10
115.9897341553
 20
557.2937642643
 30
0.0
 11
113.0298642583
 21
557.2940491265
 31
0.0
  0
LINE
  5
1E6
330
1D7
100
AcDbEntity
  8
visible
  6
Continuous
 62
     5
100
AcDbLine
 10
116.1802488844
 20
557.2865412597
 30
0.0
 11
115.9922346803
 21
557.2870849634
 31
0.0
  0
LINE
  5
1E7
330
1D7
100
AcDbEntity
  8
visible
  6
Continuous
 62
     5
100
AcDbLine
 10
118.4775294855
 20
557.2792297266
 30
0.0
 11
116.1834489452
 21
557.2865319226
 31
0.0
  0
ARC
  5
1E8
330
1D7
100
AcDbEntity
  8
visible
  6
Continuous
 62
     5
100
AcDbCircle
 10
106.104098837
 20
555.20774983
 30
0.0
 40
12.54562931763775
100
AcDbArc
 50
3.662085427
 51
9.5039536035
  0
SPLINE
  5
1E9
330
1D7
100
AcDbEntity
  8
visible
  6
Continuous
 62
     5
100
AcDbSpline
210
0.0
220
0.0
230
1.0
 70
     8
 71
     3
 72
    20
 73
    16
 74
     0
 42
0.000000001
 43
0.0000000001
 40
0.0
 40
0.0
 40
0.0
 40
0.0
 40
0.0403894445435135
 40
0.0811113754681188
 40
0.1222698648097907
 40
0.1639729039212978
 40
0.2063323518440526
 40
0.2494639077710612
 40
0.3744023469686708
 40
0.5055735175691946
 40
0.6280839801005448
 40
0.7512352781411612
 40
0.8339161823658606
 40
0.9167094912559643
 40
1.0
 40
1.0
 40
1.0
 40
1.0
 10
120.8533092862766
 20
554.3481936888113
 30
0.0
 10
120.7954040732575
 20
554.370384262319
 30
0.0
 10
120.6791143990507
 20
554.4149462123286
 30
0.0
 10
120.512323809097
 20
554.4848291010015
 30
0.0
 10
120.3504159045504
 20
554.5570181264412
 30
0.0
 10
120.1939821621256
 20
554.6315899201487
 30
0.0
 10
120.042848352305
 20
554.7083367685567
 30
0.0
 10
119.8060062207289
 20
554.8363376074481
 30
0.0
 10
119.5052492494509
 20
555.0195027877998
 30
0.0
 10
119.1942379511823
 20
555.2455197511282
 30
0.0
 10
118.9484713963275
 20
555.4594775432035
 30
0.0
 10
118.7908000706465
 20
555.6349145931357
 30
0.0
 10
118.6950359148567
 20
555.7797610762802
 30
0.0
 10
118.6406205817335
 20
555.8985433087418
 30
0.0
 10
118.6296259471138
 20
555.9721499858708
 30
0.0
 10
118.6241112718678
 20
556.0090635048207
 30
0.0
  0
ARC
  5
1EA
330
1D7
100
AcDbEntity
  8
visible
  6
Continuous
 62
     5
100
AcDbCircle
 10
123.6174584452
 20
561.8557521778
 30
0.0
 40
8.000247186057225
100
AcDbArc
 50
249.7871928237
 51
270.7219855587
  0
LINE
  5
1EB
330
1D7
100
AcDbEntity
  8
visible
  6
Continuous
 62
     5
100
AcDbLine
 10
188.0021728876
 20
554.2210045733
 30
0.0
 11
123.7182670027
 21
553.8561548882
 31
0.0
  0
ARC
  5
1EC
330
1D7
100
AcDbEntity
  8
visible
  6
Continuous
 62
     5
100
AcDbCircle
 10
-158.864009744
 20
312.7240884038
 30
0.0
 40
528.7231036266353
100
AcDbArc
 50
3.2981720883
 51
7.0422381829
  0
LINE
  5
1ED
330
1D7
100
AcDbEntity
  8
visible
  6
Continuous
 62
     5
100
AcDbLine
 10
113.0298642583
 20
557.2940491265
 30
0.0
 11
68.4591283002
 21
557.2941279554
 31
0.0
  0
SPLINE
  5
1EE
330
1D7
100
AcDbEntity
  8
visible
  6
Continuous
 62
     5
100
AcDbSpline
210
0.0
220
0.0
230
1.0
 70
     8
 71
     6
 72
    17
 73
    10
 74
     0
 42
0.000000001
 43
0.0000000001
 40
0.0
 40
0.0
 40
0.0
 40
0.0
 40
0.0
 40
0.0
 40
0.0
 40
0.25
 40
0.5
 40
0.75
 40
1.0
 40
1.0
 40
1.0
 40
1.0
 40
1.0
 40
1.0
 40
1.0
 10
368.983344731738
 20
343.142679455795
 30
0.0
 10
369.65434577511
 20
324.468702303006
 30
0.0
 10
368.663279591105
 20
288.548413313493
 30
0.0
 10
360.5183981925619
 20
239.276205382479
 30
0.0
 10
337.8008201707599
 20
183.823060705031
 30
0.0
 10
302.49192809008
 20
143.2113182769
 30
0.0
 10
259.1695877316278
 20
118.190467673754
 30
0.0
 10
224.0884937253057
 20
108.545016378394
 30
0.0
 10
200.0896616987356
 20
106.354492620089
 30
0.0
 10
188.002172887555
 20
106.35
 30
0.0
  0
SPLINE
  5
1EF
330
1D7
100
AcDbEntity
  8
visible
  6
Continuous
 62
     5
100
AcDbSpline
210
0.0
220
0.0
230
1.0
 70
     8
 71
     3
 72
    15
 73
    11
 74
     0
 42
0.000000001
 43
0.0000000001
 40
0.0
 40
0.0
 40
0.0
 40
0.0
 40
0.1488549629269838
 40
0.2813473928142336
 40
0.3985458662719548
 40
0.5000085833608799
 40
0.6085972556964614
 40
0.7281211515641831
 40
0.8582147749253658
 40
1.0
 40
1.0
 40
1.0
 40
1.0
 10
68.45912830009077
 20
557.2941279607273
 30
0.0
 10
68.29634008441724
 20
557.2937458200541
 30
0.0
 10
67.98865776635408
 20
557.2930233784017
 30
0.0
 10
67.5579406996063
 20
557.2072423136636
 30
0.0
 10
67.20732439369056
 20
557.0431886886208
 30
0.0
 10
66.92575610147466
 20
556.8191627167525
 30
0.0
 10
66.70112653019045
 20
556.5344522926652
 30
0.0
 10
66.53922808462939
 20
556.1750743650683
 30
0.0
 10
66.46040637776962
 20
555.7526725882332
 30
0.0
 10
66.45962104257262
 20
555.4563538658601
 30
0.0
 10
66.45921076025677
 20
555.30179747244
 30
0.0
  0
LINE
  5
1F0
330
1D7
100
AcDbEntity
  8
visible
  6
Continuous
 62
     5
100
AcDbLine
 10
66.460581501
 20
557.2941280507
 30
0.0
 11
68.4591283002
 21
557.2941280507
 31
0.0
  0
ARC
  5
1F1
330
1D7
100
AcDbEntity
  8
visible
  6
Continuous
 62
     5
100
AcDbCircle
 10
200.8935488013
 20
552.9764639765
 30
0.0
 40
134.5022859316742
100
AcDbArc
 50
178.1604294812
 51
179.3187200482
  0
LINE
  5
1F2
330
1D7
100
AcDbEntity
  8
visible
  6
Continuous
 62
     5
100
AcDbLine
 10
66.4592114713
 20
555.301797454
 30
0.0
 11
66.460584645
 21
557.2941281201
 31
0.0
  0
ARC
  5
1F3
330
1D7
100
AcDbEntity
  8
visible
  6
Continuous
 62
     5
100
AcDbCircle
 10
534.8683555191
 20
312.7240884038
 30
0.0
 40
528.7231036266368
100
AcDbArc
 50
173.2844629734
 51
176.7018279117
  0
SPLINE
  5
1F4
330
1D7
100
AcDbEntity
  8
visible
  6
Continuous
 62
     5
100
AcDbSpline
210
0.0
220
0.0
230
1.0
 70
     8
 71
     6
 72
    17
 73
    10
 74
     0
 42
0.000000001
 43
0.0000000001
 40
0.0
 40
0.0
 40
0.0
 40
0.0
 40
0.0
 40
0.0
 40
0.0
 40
0.25
 40
0.5
 40
0.75
 40
1.0
 40
1.0
 40
1.0
 40
1.0
 40
1.0
 40
1.0
 40
1.0
 10
188.002172887555
 20
106.35
 30
0.0
 10
175.9146840763744
 20
106.354492620089
 30
0.0
 10
151.9158520498043
 20
108.545016378394
 30
0.0
 10
116.8347580434822
 20
118.190467673754
 30
0.0
 10
73.51241768502992
 20
143.2113182769
 30
0.0
 10
38.20352560434992
 20
183.8230607050311
 30
0.0
 10
15.48594758254795
 20
239.2762053824791
 30
0.0
 10
7.341066184004985
 20
288.5484133134931
 30
0.0
 10
6.349999999999994
 20
324.4687023030061
 30
0.0
 10
7.021001043371972
 20
343.142679455795
 30
0.0
  0
LINE
  5
1F5
330
1D7
100
AcDbEntity
  8
visible
  6
Continuous
 62
     5
100
AcDbLine
 10
207.2811395228
 20
107.5340253861
 30
0.0
 11
207.8476902431
 21
107.5860714197
 31
0.0
  0
ARC
  5
1F6
330
1D7
100
AcDbEntity
  8
visible
  6
Continuous
 62
     5
100
AcDbCircle
 10
189.3140086885
 20
251.9176072459
 30
0.0
 40
145.4972044442029
100
AcDbArc
 50
271.8480734434
 51
277.0934369767
  0
ARC
  5
1F7
330
1D7
100
AcDbEntity
  8
visible
  6
Continuous
 62
     5
100
AcDbCircle
 10
188.5501681102
 20
275.0079884169
 30
0.0
 40
168.6594709758127
100
AcDbArc
 50
263.0637449666
 51
265.4296889344
  0
ARC
  5
1F8
330
1D7
100
AcDbEntity
  8
visible
  6
Continuous
 62
     5
100
AcDbCircle
 10
188.5501681102
 20
275.0079884169
 30
0.0
 40
168.6594709758127
100
AcDbArc
 50
265.9194759393
 51
269.7431641981
  0
ARC
  5
1F9
330
1D7
100
AcDbEntity
  8
visible
  6
Continuous
 62
     5
100
AcDbCircle
 10
-90.0901429153
 20
549.4813575533
 30
0.0
 40
156.4544377813121
100
AcDbArc
 50
1.9181275837
 51
2.9254200363
  0
LINE
  5
1FA
330
1D7
100
AcDbEntity
  8
visible
  6
Continuous
 62
     5
100
AcDbLine
 10
66.2766470014
 20
554.7175083427
 30
0.0
 11
66.290983344
 21
554.6258626482
 31
0.0
  0
LINE
  5
1FB
330
1D7
100
AcDbEntity
  8
visible
  6
Continuous
 62
     5
100
AcDbLine
 10
63.8506190334
 20
557.2396947928
 30
0.0
 11
66.1604054633
 21
557.4661755037
 31
0.0
  0
LINE
  5
1FC
330
1D7
100
AcDbEntity
  8
visible
  6
Continuous
 62
     5
100
AcDbLine
 10
63.7937176192
 20
557.2296244365
 30
0.0
 11
63.8505404298
 21
557.2389410686
 31
0.0
  0
SPLINE
  5
1FD
330
1D7
100
AcDbEntity
  8
visible
  6
Continuous
 62
     5
100
AcDbSpline
210
0.0
220
0.0
230
1.0
 70
     8
 71
     3
 72
    24
 73
    20
 74
     0
 42
0.000000001
 43
0.0000000001
 40
0.0
 40
0.0
 40
0.0
 40
0.0
 40
0.0350800207807984
 40
0.0703729100611262
 40
0.1059035444772632
 40
0.1416986625517425
 40
0.1777872661256515
 40
0.2142009991213948
 40
0.2509744958505805
 40
0.375323844909789
 40
0.5032600619053801
 40
0.564092311848307
 40
0.6259085512013325
 40
0.6888467510392698
 40
0.7509259765120967
 40
0.8146426949142676
 40
0.8771891685617663
 40
0.9388814300957503
 40
1.0
 40
1.0
 40
1.0
 40
1.0
 10
70.35240978838776
 20
553.414333016401
 30
0.0
 10
70.27707311677311
 20
553.4157664636474
 30
0.0
 10
70.12595754345975
 20
553.4184198455158
 30
0.0
 10
69.90165350596838
 20
553.4267092798435
 30
0.0
 10
69.6787542921424
 20
553.4383165877202
 30
0.0
 10
69.45782986124424
 20
553.4536535274146
 30
0.0
 10
69.23922318479548
 20
553.4727289919488
 30
0.0
 10
69.02333512962066
 20
553.4956448713137
 30
0.0
 10
68.6425876263447
 20
553.5436145476007
 30
0.0
 10
68.1176709694937
 20
553.6346039065927
 30
0.0
 10
67.62144005944633
 20
553.764689297036
 30
0.0
 10
67.27568492664359
 20
553.8836016972147
 30
0.0
 10
67.0460814951385
 20
553.9781300075962
 30
0.0
 10
66.84243212119655
 20
554.078492277451
 30
0.0
 10
66.66659725719617
 20
554.1843392052592
 30
0.0
 10
66.52198521162832
 20
554.2933798996137
 30
0.0
 10
66.41053722408543
 20
554.4045463643978
 30
0.0
 10
66.33053676380356
 20
554.5155062947191
 30
0.0
 10
66.30419354464429
 20
554.588961516627
 30
0.0
 10
66.29104541728317
 20
554.6255625088468
 30
0.0
  0
SPLINE
  5
1FE
330
1D7
100
AcDbEntity
  8
visible
  6
Continuous
 62
     5
100
AcDbSpline
210
0.0
220
0.0
230
1.0
 70
     8
 71
     3
 72
    27
 73
    23
 74
     0
 42
0.000000001
 43
0.0000000001
 40
0.0
 40
0.0
 40
0.0
 40
0.0
 40
0.0452315553145605
 40
0.0838861540896149
 40
0.1162909623902194
 40
0.1737270929283132
 40
0.2323117899914256
 40
0.2934597943419332
 40
0.3607800027420739
 40
0.4915717876952331
 40
0.557613816270269
 40
0.6161605031580905
 40
0.6795822393152621
 40
0.7377904857516102
 40
0.775817108318402
 40
0.8120374627567928
 40
0.84659491116246
 40
0.8796436109344511
 40
0.9113446472743066
 40
0.9418622583777524
 40
0.9713604158815466
 40
1.0
 40
1.0
 40
1.0
 40
1.0
 10
119.6287016455465
 20
550.88127139268
 30
0.0
 10
118.8817857604703
 20
550.8980247975783
 30
0.0
 10
117.4975360851414
 20
550.9291121606641
 30
0.0
 10
115.5789177184076
 20
550.9825917623264
 30
0.0
 10
113.4592275426909
 20
551.048603872383
 30
0.0
 10
111.011306295166
 20
551.1361154555412
 30
0.0
 10
108.0902142940979
 20
551.2560266929969
 30
0.0
 10
105.0073436421323
 20
551.3982058325042
 30
0.0
 10
100.7363703333784
 20
551.6149678465339
 30
0.0
 10
96.38833256354204
 20
551.8612227170694
 30
0.0
 10
92.1890455397103
 20
552.1158030792636
 30
0.0
 10
89.1000432483801
 20
552.3109202749146
 30
0.0
 10
86.14216755287747
 20
552.5041578952622
 30
0.0
 10
83.52390370728591
 20
552.6806110819342
 30
0.0
 10
81.35377732416919
 20
552.828545853406
 30
0.0
 10
79.57266000186195
 20
552.9496254646501
 30
0.0
 10
77.87458670388757
 20
553.0626471857375
 30
0.0
 10
76.2520692875287
 20
553.1655197583168
 30
0.0
 10
74.69730839124489
 20
553.2559672683321
 30
0.0
 10
73.20263184106715
 20
553.3302440433295
 30
0.0
 10
71.7600133033933
 20
553.3875658088276
 30
0.0
 10
70.81696301350209
 20
553.4055716603046
 30
0.0
 10
70.35240978838776
 20
553.414333016401
 30
0.0
  0
SPLINE
  5
1FF
330
1D7
100
AcDbEntity
  8
visible
  6
Continuous
 62
     5
100
AcDbSpline
210
0.0
220
0.0
230
1.0
 70
     8
 71
     5
 72
    12
 73
     6
 74
     0
 42
0.000000001
 43
0.0000000001
 40
0.0
 40
0.0
 40
0.0
 40
0.0
 40
0.0
 40
0.0
 40
1.0
 40
1.0
 40
1.0
 40
1.0
 40
1.0
 40
1.0
 10
63.79373364451097
 20
557.2299616384134
 30
0.0
 10
59.22936329410705
 20
556.4514465581152
 30
0.0
 10
54.13080661203249
 20
553.7729508396721
 30
0.0
 10
49.14907427098083
 20
546.3291318882883
 30
0.0
 10
45.61945079852558
 20
534.4902011216352
 30
0.0
 10
40.63182477464677
 20
518.5159393272088
 30
0.0
  0
ARC
  5
200
330
1D7
100
AcDbEntity
  8
visible
  6
Continuous
 62
     5
100
AcDbCircle
 10
1279.498363065
 20
117.2451461312
 30
0.0
 40
1302.232141043866
100
AcDbArc
 50
162.0527806674
 51
163.9914753369
  0
ARC
  5
201
330
1D7
100
AcDbEntity
  8
visible
  6
Continuous
 62
     5
100
AcDbCircle
 10
575.5315266431
 20
325.0874172149
 30
0.0
 40
568.2738533551864
100
AcDbArc
 50
164.5603402562
 51
178.1810228078
  0
ARC
  5
202
330
1D7
100
AcDbEntity
  8
visible
  6
Continuous
 62
     5
100
AcDbCircle
 10
183.3079455262
 20
4278.7978640402
 30
0.0
 40
3728.460428627021
100
AcDbArc
 50
269.0213844586
 51
270.0721381962
  0
SPLINE
  5
203
330
1D7
100
AcDbEntity
  8
visible
  6
Continuous
 62
     5
100
AcDbSpline
210
0.0
220
0.0
230
1.0
 70
     8
 71
     2
 72
    36
 73
    33
 74
     0
 42
0.000000001
 43
0.0000000001
 40
0.0
 40
0.0
 40
0.0
 40
0.0625
 40
0.0625
 40
0.125
 40
0.125
 40
0.1875
 40
0.1875
 40
0.25
 40
0.25
 40
0.3125
 40
0.3125
 40
0.375
 40
0.375
 40
0.4375
 40
0.4375
 40
0.5
 40
0.5
 40
0.5625
 40
0.5625
 40
0.625
 40
0.625
 40
0.6875
 40
0.6875
 40
0.75
 40
0.75
 40
0.8125
 40
0.8125
 40
0.875
 40
0.875
 40
0.9375
 40
0.9375
 40
1.0
 40
1.0
 40
1.0
 10
188.0021728875547
 20
106.8749425059055
 30
0.0
 10
178.9952953435615
 20
106.8779731421398
 30
0.0
 10
170.0324944797149
 20
107.8914839838052
 30
0.0
 10
161.1207867773583
 20
108.8992172260469
 30
0.0
 10
152.3502330885046
 20
110.8951442687874
 30
0.0
 10
143.5966261714546
 20
112.8872147112118
 30
0.0
 10
135.0810665208112
 20
115.8418566560313
 30
0.0
 10
126.551162766292
 20
118.8014755715623
 30
0.0
 10
118.3532217668265
 20
122.6950440304672
 30
0.0
 10
110.1144724375987
 20
126.6079941884638
 30
0.0
 10
102.2969135484333
 20
131.4239195809168
 30
0.0
 10
94.41798769379946
 20
136.2776494506302
 30
0.0
 10
87.04378286763544
 20
142.0017876394339
 30
0.0
 10
79.59399757397264
 20
147.7845942610432
 30
0.0
 10
72.72633555498727
 20
154.4043445206459
 30
0.0
 10
65.77511400173647
 20
161.1046379472124
 30
0.0
 10
59.47738081802225
 20
168.607979361094
 30
0.0
 10
53.09376863147147
 20
176.2136400476041
 30
0.0
 10
47.4294697896831
 20
184.5880749585752
 30
0.0
 10
41.68181383338168
 20
193.0857499649851
 30
0.0
 10
36.71433407675121
 20
202.317308611482
 30
0.0
 10
31.66997633629421
 20
211.6917372143932
 30
0.0
 10
27.46232430827522
 20
221.7639529581454
 30
0.0
 10
23.18737392151671
 20
231.997266526506
 30
0.0
 10
19.80184868400073
 20
242.8901768161734
 30
0.0
 10
16.36097737858522
 20
253.9611627987476
 30
0.0
 10
13.85881152280174
 20
265.6503460217941
 30
0.0
 10
11.31508377575224
 20
277.5336908592606
 30
0.0
 10
9.756051811105227
 20
289.9893242691961
 30
0.0
 10
8.17075184305127
 20
302.6548216384796
 30
0.0
 10
7.612781751326292
 20
315.8407739498686
 30
0.0
 10
7.045246240671266
 20
329.2527762946261
 30
0.0
 10
7.544025435298973
 20
343.1254569874495
 30
0.0
  0
ARC
  5
204
330
1D7
100
AcDbEntity
  8
visible
  6
Continuous
 62
     5
100
AcDbCircle
 10
466.094488692
 20
549.4813575532
 30
0.0
 40
156.4544377829426
100
AcDbArc
 50
177.0745799637
 51
178.0818724163
  0
ARC
  5
205
330
1D7
100
AcDbEntity
  8
visible
  6
Continuous
 62
     5
100
AcDbCircle
 10
193.2086203688
 20
4214.0489990459
 30
0.0
 40
3663.71230772966
100
AcDbArc
 50
269.9185791298
 51
270.9879004937
  0
SPLINE
  5
206
330
1D7
100
AcDbEntity
  8
visible
  6
Continuous
 62
     5
100
AcDbSpline
210
0.0
220
0.0
230
1.0
 70
     8
 71
     2
 72
    20
 73
    17
 74
     0
 42
0.000000001
 43
0.0000000001
 40
0.0
 40
0.0
 40
0.0
 40
0.125
 40
0.125
 40
0.25
 40
0.25
 40
0.375
 40
0.375
 40
0.5
 40
0.5
 40
0.625
 40
0.625
 40
0.75
 40
0.75
 40
0.875
 40
0.875
 40
1.0
 40
1.0
 40
1.0
 10
368.460320462345
 20
343.1254570606725
 30
0.0
 10
369.4508259140148
 20
315.5762541668318
 30
0.0
 10
366.2482939707597
 20
289.9893243231689
 30
0.0
 10
363.1518594104137
 20
265.2500694882804
 30
0.0
 10
356.2024971036772
 20
242.8901768566134
 30
0.0
 10
349.4758542810648
 20
221.2468944018501
 30
0.0
 10
339.2900117137142
 20
202.3173086400198
 30
0.0
 10
329.4120487361917
 20
183.9598928348161
 30
0.0
 10
316.5269649726387
 20
168.6079793796227
 30
0.0
 10
303.9840468124623
 20
153.6637386122267
 30
0.0
 10
288.9605629210961
 20
142.0017876500081
 30
0.0
 10
274.236673269497
 20
130.572396149895
 30
0.0
 10
257.6511240183368
 20
122.6950440352423
 30
0.0
 10
241.226970301234
 20
114.8943471722336
 30
0.0
 10
223.6541126919429
 20
110.8951442700022
 30
0.0
 10
206.0156180618896
 20
106.8810037992909
 30
0.0
 10
188.0021728875547
 20
106.8749425059055
 30
0.0
  0
ARC
  5
207
330
1D7
100
AcDbEntity
  8
visible
  6
Continuous
 62
     5
100
AcDbCircle
 10
-200.9894593197
 20
324.8655024306
 30
0.0
 40
569.7424660641511
100
AcDbArc
 50
1.836614939
 51
15.4220221093
  0
ARC
  5
208
330
1D7
100
AcDbEntity
  8
visible
  6
Continuous
 62
     5
100
AcDbCircle
 10
-903.4940145542
 20
117.2451469437
 30
0.0
 40
1302.232138190146
100
AcDbArc
 50
16.008524662
 51
17.9472193326
  0
SPLINE
  5
209
330
1D7
100
AcDbEntity
  8
visible
  6
Continuous
 62
     5
100
AcDbSpline
210
0.0
220
0.0
230
1.0
 70
     8
 71
     5
 72
    12
 73
     6
 74
     0
 42
0.000000001
 43
0.0000000001
 40
0.0
 40
0.0
 40
0.0
 40
0.0
 40
0.0
 40
0.0
 40
1.0
 40
1.0
 40
1.0
 40
1.0
 40
1.0
 40
1.0
 10
312.210612130599
 20
557.2299616384133
 30
0.0
 10
316.7749824810099
 20
556.4514465581115
 30
0.0
 10
321.8735391630826
 20
553.7729508396645
 30
0.0
 10
326.8552715041315
 20
546.3291318882802
 30
0.0
 10
330.3848949765861
 20
534.4902011216296
 30
0.0
 10
335.3725210210786
 20
518.515939261182
 30
0.0
  0
LINE
  5
20A
330
1D7
100
AcDbEntity
  8
visible
  6
Continuous
 62
     5
100
AcDbLine
 10
312.1537267417
 20
557.2396947928
 30
0.0
 11
309.8439403118
 21
557.4661755037
 31
0.0
  0
LINE
  5
20B
330
1D7
100
AcDbEntity
  8
visible
  6
Continuous
 62
     5
100
AcDbLine
 10
312.2107535521
 20
557.2304333755
 30
0.0
 11
312.1539107346
 21
557.2396471987
 31
0.0
  0
ARC
  5
20C
330
1D7
100
AcDbEntity
  8
visible
  6
Continuous
 62
     5
100
AcDbCircle
 10
245.9700222691
 20
1233.8631277521
 30
0.0
 40
683.061119580229
100
AcDbArc
 50
270.8728666596
 51
275.0125641767
  0
SPLINE
  5
20D
330
1D7
100
AcDbEntity
  8
visible
  6
Continuous
 62
     5
100
AcDbSpline
210
0.0
220
0.0
230
1.0
 70
     8
 71
     3
 72
    24
 73
    20
 74
     0
 42
0.000000001
 43
0.0000000001
 40
0.0
 40
0.0
 40
0.0
 40
0.0
 40
0.03487387691371
 40
0.0698997020924229
 40
0.1051253123302478
 40
0.1406025638363508
 40
0.1763872034027408
 40
0.2125386769700076
 40
0.2491198765748693
 40
0.3111919167540931
 40
0.3741375946497525
 40
0.4359469758784922
 40
0.4967863711069357
 40
0.6247156667675081
 40
0.7490725245965254
 40
0.8131732396268587
 40
0.8762530673858401
 40
0.9384802423432497
 40
1.0
 40
1.0
 40
1.0
 40
1.0
 10
309.7133003578267
 20
554.6255625088465
 30
0.0
 10
309.7065134330487
 20
554.6046840496615
 30
0.0
 10
309.6929862718923
 20
554.5629262551579
 30
0.0
 10
309.659707660349
 20
554.4999445660605
 30
0.0
 10
309.6165744836845
 20
554.4367244226625
 30
0.0
 10
309.562409493862
 20
554.3733535361567
 30
0.0
 10
309.4972146735973
 20
554.3099526106823
 30
0.0
 10
309.4206600297357
 20
554.2466328662304
 30
0.0
 10
309.3125132924963
 20
554.1691299714727
 30
0.0
 10
309.1619080179443
 20
554.0784946852317
 30
0.0
 10
308.9582845478076
 20
553.97813799577
 30
0.0
 10
308.7286686979478
 20
553.8836048179671
 30
0.0
 10
308.3829300465377
 20
553.7646969572781
 30
0.0
 10
307.8866637724412
 20
553.6345959871256
 30
0.0
 10
307.3122129906166
 20
553.53504438169
 30
0.0
 10
306.8224415861662
 20
553.4769465905418
 30
0.0
 10
306.4387637537404
 20
553.4444931984142
 30
0.0
 10
306.0490597075583
 20
553.4227006689625
 30
0.0
 10
305.7838100723252
 20
553.4171855708834
 30
0.0
 10
305.6519359867222
 20
553.4143330164007
 30
0.0
  0
LINE
  5
20E
330
1D7
100
AcDbEntity
  8
visible
  6
Continuous
 62
     5
100
AcDbLine
 10
309.7276987737
 20
554.7175083427
 30
0.0
 11
309.7133624311
 21
554.6258626482
 31
0.0
  0
ARC
  5
20F
330
1D7
100
AcDbEntity
  8
visible
  6
Continuous
 62
     5
100
AcDbCircle
 10
112.4661825494
 20
541.8740555438
 30
0.0
 40
23.1
100
AcDbArc
 50
31.6064287196
 51
137.8184016641
  0
ARC
  5
210
330
1D7
100
AcDbEntity
  8
visible
  6
Continuous
 62
     5
100
AcDbCircle
 10
263.4208079519
 20
541.8740555438
 30
0.0
 40
23.1
100
AcDbArc
 50
42.0743897253
 51
148.4073299471
  0
ENDBLK
  5
212
330
1D7
100
AcDbEntity
  8
0
100
AcDbBlockEnd
  0
ENDSEC
  0
SECTION
  2
ENTITIES
  0
LINE
  5
6B
330
1F
100
AcDbEntity
  8
Default
  6
Continuous
 62
     3
100
AcDbLine
 10
114.54196616
 20
684.3330735434
 30
0.0
 11
110.3903989388
 21
684.3330735434
 31
0.0
  0
LINE
  5
6C
330
1F
100
AcDbEntity
  8
Default
  6
Continuous
 62
     3
100
AcDbLine
 10
265.4965915626
 20
684.3330735434
 30
0.0
 11
261.3450243413
 21
684.3330735434
 31
0.0
  0
INSERT
  5
6E
330
1F
100
AcDbEntity
  8
Default
100
AcDbBlockReference
  2
SEANNOT_GROUP
 10
0.0
 20
0.0
 30
0.0
  0
INSERT
  5
76
330
1F
100
AcDbEntity
  8
Default
100
AcDbBlockReference
  2
SEANNOT_GROUP1
 10
0.0
 20
0.0
 30
0.0
  0
INSERT
  5
7C
330
1F
100
AcDbEntity
  8
Default
100
AcDbBlockReference
  2
SEANNOT_GROUP2
 10
0.0
 20
0.0
 30
0.0
  0
INSERT
  5
86
330
1F
100
AcDbEntity
  8
Default
100
AcDbBlockReference
  2
SEANNOT_GROUP3
 10
0.0
 20
0.0
 30
0.0
  0
INSERT
  5
90
330
1F
100
AcDbEntity
  8
Default
100
AcDbBlockReference
  2
SEANNOT_GROUP4
 10
0.0
 20
0.0
 30
0.0
  0
INSERT
  5
96
330
1F
100
AcDbEntity
  8
Default
100
AcDbBlockReference
  2
SE
 10
0.0
 20
0.0
 30
0.0
  0
INSERT
  5
13D
330
1F
100
AcDbEntity
  8
Default
100
AcDbBlockReference
  2
SE1
 10
0.0
 20
0.0
 30
0.0
  0
INSERT
  5
1D8
330
1F
100
AcDbEntity
  8
Default
100
AcDbBlockReference
  2
SE2
 10
0.0
 20
0.0
 30
0.0
  0
MTEXT
  5
213
330
1F
100
AcDbEntity
  8
Default
100
AcDbMText
 10
5.9362635081
 20
63.4225120485
 30
0.0
 40
10.0
 41
113.8626497168
 46
65.4545454545
 71
     1
 72
     1
  1
{\fSolid Edge ISO|b0||i0||c0|p34;\C7;\H10.;\W1.;Grohe AG\P}{\fSolid Edge ISO|b0||i0||c0|p34;\C7;\H10.;\W1.;\P}{\fSolid Edge ISO|b0||i0||c0|p34;\C7;\H10.;\W1.;ecn:\P}{\fSolid Edge ISO|b0||i0||c0|p34;\C7;\H10.;\W1.;unit: mm}
 73
     1
 44
1.0
1001
ACAD
1000
ACAD_MTEXT_DEFINED_HEIGHT_BEGIN
1070
    46
1040
65.4545454545
1000
ACAD_MTEXT_DEFINED_HEIGHT_END
  0
LINE
  5
214
330
1F
100
AcDbEntity
  8
Default
  6
Continuous
 62
     7
100
AcDbLine
 10
0.0
 20
0.0
 30
0.0
 11
100.0
 21
0.0
 31
0.0
  0
LINE
  5
215
330
1F
100
AcDbEntity
  8
Default
  6
Continuous
 62
     7
100
AcDbLine
 10
0.0
 20
0.0
 30
0.0
 11
0.0
 21
100.0
 31
0.0
  0
MTEXT
  5
216
330
1F
100
AcDbEntity
  8
Default
100
AcDbMText
 10
24.3923665681
 20
-8.2375342018
 30
0.0
 40
10.0
 41
35.00001
 46
16.3636363636
 71
     1
 72
     1
  1
{\fSolid Edge ISO|b0||i0||c0|p34;\C7;\H10.;\W1.;100 mm}
 73
     1
 44
1.0
1001
ACAD
1000
ACAD_MTEXT_DEFINED_HEIGHT_BEGIN
1070
    46
1040
16.3636363636
1000
ACAD_MTEXT_DEFINED_HEIGHT_END
  0
MTEXT
  5
217
330
1F
100
AcDbEntity
  8
Default
100
AcDbMText
 10
-20.5695763349
 20
24.6231930421
 30
0.0
 40
10.0
 41
35.00001
 46
16.3636363636
 71
     1
 72
     1
  1
{\fSolid Edge ISO|b0||i0||c0|p34;\C7;\H10.;\W1.;100 mm}
 11
6.123233995736766E-17
 21
1.0
 31
0.0
 73
     1
 44
1.0
1001
ACAD
1000
ACAD_MTEXT_DEFINED_HEIGHT_BEGIN
1070
    46
1040
16.3636363636
1000
ACAD_MTEXT_DEFINED_HEIGHT_END
  0
MTEXT
  5
218
330
1F
100
AcDbEntity
  8
Default
100
AcDbMText
 10
28.4878128572
 20
24.8634936442
 30
0.0
 40
10.0
 41
86.691737001
 46
16.3636363636
 71
     4
 72
     1
  1
{\fSolid Edge ISO|b0||i0||c0|p34;\C7;\H10.;\W1.;240939}
 73
     1
 44
1.0
1001
ACAD
1000
ACAD_MTEXT_DEFINED_HEIGHT_BEGIN
1070
    46
1040
16.3636363636
1000
ACAD_MTEXT_DEFINED_HEIGHT_END
  0
MTEXT
  5
219
330
1F
100
AcDbEntity
  8
Default
100
AcDbMText
 10
5.9012241913
 20
41.4970052916
 30
0.0
 40
10.0
 41
109.9146987306
 46
16.3636363636
 71
     4
 72
     1
  1
{\fSolid Edge ISO|b0||i0||c0|p34;\C7;\H10.;\W1.;39493000}
 73
     1
 44
1.0
1001
ACAD
1000
ACAD_MTEXT_DEFINED_HEIGHT_BEGIN
1070
    46
1040
16.3636363636
1000
ACAD_MTEXT_DEFINED_HEIGHT_END
  0
ENDSEC
  0
SECTION
  2
OBJECTS
  0
DICTIONARY
  5
C
330
0
100
AcDbDictionary
281
     1
  3
ACAD_DETAILVIEWSTYLE
350
24E
  3
ACAD_GROUP
350
D
  3
ACAD_LAYOUT
350
1A
  3
ACAD_MATERIAL
350
43
  3
ACAD_MLEADERSTYLE
350
24D
  3
ACAD_MLINESTYLE
350
17
  3
ACAD_PLOTSETTINGS
350
19
  3
ACAD_PLOTSTYLENAME
350
E
  3
ACAD_SCALELIST
350
47
  3
ACAD_SECTIONVIEWSTYLE
350
24F
  3
ACAD_TABLESTYLE
350
24C
  3
ACAD_VISUALSTYLE
350
2A
  3
AcDbVariableDictionary
350
21A
  0
SUN
  5
69
330
29
100
AcDbSun
 90
        1
290
     0
 63
     7
421
 16777215
 40
1.0
291
     1
 91
  2455826
 92
 54000000
292
     0
 70
     2
 71
   256
280
     1
  0
DICTIONARY
  5
24E
102
{ACAD_REACTORS
330
C
102
}
330
C
100
AcDbDictionary
281
     1
  0
DICTIONARY
  5
D
102
{ACAD_REACTORS
330
C
102
}
330
C
100
AcDbDictionary
281
     1
  0
DICTIONARY
  5
1A
102
{ACAD_REACTORS
330
C
102
}
330
C
100
AcDbDictionary
281
     1
  3
Layout1
350
1E
  3
Model
350
22
  0
DICTIONARY
  5
43
102
{ACAD_REACTORS
330
C
102
}
330
C
100
AcDbDictionary
281
     1
  3
ByBlock
350
45
  3
ByLayer
350
44
  3
Global
350
46
  0
DICTIONARY
  5
24D
102
{ACAD_REACTORS
330
C
102
}
330
C
100
AcDbDictionary
281
     1
  0
DICTIONARY
  5
17
102
{ACAD_REACTORS
330
C
102
}
330
C
100
AcDbDictionary
281
     1
  3
Standard
350
18
  0
DICTIONARY
  5
19
102
{ACAD_REACTORS
330
C
102
}
330
C
100
AcDbDictionary
281
     1
  0
ACDBDICTIONARYWDFLT
  5
E
102
{ACAD_REACTORS
330
C
102
}
330
C
100
AcDbDictionary
281
     1
  3
Normal
350
F
100
AcDbDictionaryWithDefault
340
F
  0
DICTIONARY
  5
47
102
{ACAD_REACTORS
330
C
102
}
330
C
100
AcDbDictionary
281
     1
  3
A0
350
48
  3
A1
350
49
  3
A2
350
4A
  3
A3
350
4B
  3
A4
350
4C
  3
A5
350
4D
  3
A6
350
4E
  3
A7
350
4F
  3
A8
350
50
  3
A9
350
51
  3
B0
350
52
  3
B1
350
53
  3
B2
350
54
  3
B3
350
55
  3
B4
350
56
  3
B5
350
57
  3
B6
350
58
  3
B7
350
59
  3
B8
350
5A
  3
B9
350
5B
  3
C0
350
5C
  3
C1
350
5D
  3
C2
350
5E
  3
C3
350
5F
  3
C4
350
60
  3
C5
350
61
  3
C6
350
62
  3
C7
350
63
  3
C8
350
64
  3
C9
350
65
  3
D0
350
66
  3
D1
350
67
  3
D2
350
68
  0
DICTIONARY
  5
24F
102
{ACAD_REACTORS
330
C
102
}
330
C
100
AcDbDictionary
281
     1
  0
DICTIONARY
  5
24C
102
{ACAD_REACTORS
330
C
102
}
330
C
100
AcDbDictionary
281
     1
  0
DICTIONARY
  5
2A
102
{ACAD_REACTORS
330
C
102
}
330
C
100
AcDbDictionary
281
     1
  3
2dWireframe
350
2F
  3
Basic
350
32
  3
Brighten
350
36
  3
ColorChange
350
3A
  3
Conceptual
350
34
  3
Dim
350
35
  3
EdgeColorOff
350
3D
  3
Facepattern
350
39
  3
Flat
350
2B
  3
FlatWithEdges
350
2C
  3
Gouraud
350
2D
  3
GouraudWithEdges
350
2E
  3
Hidden
350
31
  3
JitterOff
350
3B
  3
Linepattern
350
38
  3
OverhangOff
350
3C
  3
Realistic
350
33
  3
Shaded
350
42
  3
Shaded with edges
350
41
  3
Shades of Gray
350
3E
  3
Sketchy
350
3F
  3
Thicken
350
37
  3
Wireframe
350
30
  3
X-Ray
350
40
  0
DICTIONARY
  5
21A
102
{ACAD_REACTORS
330
C
102
}
330
C
100
AcDbDictionary
281
     1
  3
CANNOSCALE
350
21B
  0
LAYOUT
  5
1E
102
{ACAD_REACTORS
330
1A
102
}
330
1A
100
AcDbPlotSettings
  1

  2
none_device
  4

  6

 40
0.0
 41
0.0
 42
0.0
 43
0.0
 44
0.0
 45
0.0
 46
0.0
 47
0.0
 48
0.0
 49
0.0
140
0.0
141
0.0
142
1.0
143
1.0
 70
   688
 72
     1
 73
     0
 74
     5
  7

 75
    16
 76
     0
 77
     2
 78
   300
147
1.0
148
0.0
149
0.0
100
AcDbLayout
  1
Layout1
 70
     1
 71
     1
 10
0.0
 20
0.0
 11
3000.0
 21
4500.0
 12
0.0
 22
0.0
 32
0.0
 14
0.0
 24
0.0
 34
0.0
 15
3000.0
 25
4500.0
 35
0.0
146
0.0
 13
0.0
 23
0.0
 33
0.0
 16
1.0
 26
0.0
 36
0.0
 17
0.0
 27
1.0
 37
0.0
 76
     0
330
1B
  0
LAYOUT
  5
22
102
{ACAD_REACTORS
330
1A
102
}
330
1A
100
AcDbPlotSettings
  1

  2
none_device
  4
Letter_(8.50_x_11.00_Inches)
  6

 40
6.35
 41
6.35
 42
6.35000508
 43
6.35000508
 44
215.9
 45
279.4
 46
0.0
 47
0.0
 48
0.0
 49
0.0
140
0.0
141
0.0
142
1.0
143
1.0
 70
  1712
 72
     1
 73
     0
 74
     0
  7

 75
     0
 76
     0
 77
     2
 78
   300
147
1.0
148
0.0
149
0.0
100
AcDbLayout
  1
Model
 70
     1
 71
     0
 10
0.0
 20
0.0
 11
3000.0
 21
4500.0
 12
0.0
 22
0.0
 32
0.0
 14
0.0
 24
0.0
 34
0.0
 15
3000.0
 25
4500.0
 35
0.0
146
0.0
 13
0.0
 23
0.0
 33
0.0
 16
1.0
 26
0.0
 36
0.0
 17
0.0
 27
1.0
 37
0.0
 76
     0
330
1F
331
29
  0
MATERIAL
  5
45
102
{ACAD_REACTORS
330
43
102
}
330
43
100
AcDbMaterial
  1
ByBlock
 72
     1
 94
      127
  0
MATERIAL
  5
44
102
{ACAD_REACTORS
330
43
102
}
330
43
100
AcDbMaterial
  1
ByLayer
 72
     1
 94
      127
  0
MATERIAL
  5
46
102
{ACAD_REACTORS
330
43
102
}
330
43
100
AcDbMaterial
  1
Global
 72
     1
 94
      127
  0
MLINESTYLE
  5
18
102
{ACAD_REACTORS
330
17
102
}
330
17
100
AcDbMlineStyle
  2
Standard
 70
     0
  3

 62
   256
 51
90.0
 52
90.0
 71
     2
 49
0.5
 62
   256
  6
BYLAYER
 49
-0.5
 62
   256
  6
BYLAYER
  0
ACDBPLACEHOLDER
  5
F
102
{ACAD_REACTORS
330
E
102
}
330
E
  0
SCALE
  5
48
102
{ACAD_REACTORS
330
47
102
}
330
47
100
AcDbScale
 70
     0
300
1:1
140
1.0
141
1.0
290
     1
  0
SCALE
  5
49
102
{ACAD_REACTORS
330
47
102
}
330
47
100
AcDbScale
 70
     0
300
1:2
140
1.0
141
2.0
290
     0
  0
SCALE
  5
4A
102
{ACAD_REACTORS
330
47
102
}
330
47
100
AcDbScale
 70
     0
300
1:4
140
1.0
141
4.0
290
     0
  0
SCALE
  5
4B
102
{ACAD_REACTORS
330
47
102
}
330
47
100
AcDbScale
 70
     0
300
1:5
140
1.0
141
5.0
290
     0
  0
SCALE
  5
4C
102
{ACAD_REACTORS
330
47
102
}
330
47
100
AcDbScale
 70
     0
300
1:8
140
1.0
141
8.0
290
     0
  0
SCALE
  5
4D
102
{ACAD_REACTORS
330
47
102
}
330
47
100
AcDbScale
 70
     0
300
1:10
140
1.0
141
10.0
290
     0
  0
SCALE
  5
4E
102
{ACAD_REACTORS
330
47
102
}
330
47
100
AcDbScale
 70
     0
300
1:16
140
1.0
141
16.0
290
     0
  0
SCALE
  5
4F
102
{ACAD_REACTORS
330
47
102
}
330
47
100
AcDbScale
 70
     0
300
1:20
140
1.0
141
20.0
290
     0
  0
SCALE
  5
50
102
{ACAD_REACTORS
330
47
102
}
330
47
100
AcDbScale
 70
     0
300
1:30
140
1.0
141
30.0
290
     0
  0
SCALE
  5
51
102
{ACAD_REACTORS
330
47
102
}
330
47
100
AcDbScale
 70
     0
300
1:40
140
1.0
141
40.0
290
     0
  0
SCALE
  5
52
102
{ACAD_REACTORS
330
47
102
}
330
47
100
AcDbScale
 70
     0
300
1:50
140
1.0
141
50.0
290
     0
  0
SCALE
  5
53
102
{ACAD_REACTORS
330
47
102
}
330
47
100
AcDbScale
 70
     0
300
1:100
140
1.0
141
100.0
290
     0
  0
SCALE
  5
54
102
{ACAD_REACTORS
330
47
102
}
330
47
100
AcDbScale
 70
     0
300
2:1
140
2.0
141
1.0
290
     0
  0
SCALE
  5
55
102
{ACAD_REACTORS
330
47
102
}
330
47
100
AcDbScale
 70
     0
300
4:1
140
4.0
141
1.0
290
     0
  0
SCALE
  5
56
102
{ACAD_REACTORS
330
47
102
}
330
47
100
AcDbScale
 70
     0
300
8:1
140
8.0
141
1.0
290
     0
  0
SCALE
  5
57
102
{ACAD_REACTORS
330
47
102
}
330
47
100
AcDbScale
 70
     0
300
10:1
140
10.0
141
1.0
290
     0
  0
SCALE
  5
58
102
{ACAD_REACTORS
330
47
102
}
330
47
100
AcDbScale
 70
     0
300
100:1
140
100.0
141
1.0
290
     0
  0
SCALE
  5
59
102
{ACAD_REACTORS
330
47
102
}
330
47
100
AcDbScale
 70
     0
300
1/128" = 1'-0"
140
0.0078125
141
12.0
290
     0
  0
SCALE
  5
5A
102
{ACAD_REACTORS
330
47
102
}
330
47
100
AcDbScale
 70
     0
300
1/64" = 1'-0"
140
0.015625
141
12.0
290
     0
  0
SCALE
  5
5B
102
{ACAD_REACTORS
330
47
102
}
330
47
100
AcDbScale
 70
     0
300
1/32" = 1'-0"
140
0.03125
141
12.0
290
     0
  0
SCALE
  5
5C
102
{ACAD_REACTORS
330
47
102
}
330
47
100
AcDbScale
 70
     0
300
1/16" = 1'-0"
140
0.0625
141
12.0
290
     0
  0
SCALE
  5
5D
102
{ACAD_REACTORS
330
47
102
}
330
47
100
AcDbScale
 70
     0
300
3/32" = 1'-0"
140
0.09375
141
12.0
290
     0
  0
SCALE
  5
5E
102
{ACAD_REACTORS
330
47
102
}
330
47
100
AcDbScale
 70
     0
300
1/8" = 1'-0"
140
0.125
141
12.0
290
     0
  0
SCALE
  5
5F
102
{ACAD_REACTORS
330
47
102
}
330
47
100
AcDbScale
 70
     0
300
3/16" = 1'-0"
140
0.1875
141
12.0
290
     0
  0
SCALE
  5
60
102
{ACAD_REACTORS
330
47
102
}
330
47
100
AcDbScale
 70
     0
300
1/4" = 1'-0"
140
0.25
141
12.0
290
     0
  0
SCALE
  5
61
102
{ACAD_REACTORS
330
47
102
}
330
47
100
AcDbScale
 70
     0
300
3/8" = 1'-0"
140
0.375
141
12.0
290
     0
  0
SCALE
  5
62
102
{ACAD_REACTORS
330
47
102
}
330
47
100
AcDbScale
 70
     0
300
1/2" = 1'-0"
140
0.5
141
12.0
290
     0
  0
SCALE
  5
63
102
{ACAD_REACTORS
330
47
102
}
330
47
100
AcDbScale
 70
     0
300
3/4" = 1'-0"
140
0.75
141
12.0
290
     0
  0
SCALE
  5
64
102
{ACAD_REACTORS
330
47
102
}
330
47
100
AcDbScale
 70
     0
300
1" = 1'-0"
140
1.0
141
12.0
290
     0
  0
SCALE
  5
65
102
{ACAD_REACTORS
330
47
102
}
330
47
100
AcDbScale
 70
     0
300
1-1/2" = 1'-0"
140
1.5
141
12.0
290
     0
  0
SCALE
  5
66
102
{ACAD_REACTORS
330
47
102
}
330
47
100
AcDbScale
 70
     0
300
3" = 1'-0"
140
3.0
141
12.0
290
     0
  0
SCALE
  5
67
102
{ACAD_REACTORS
330
47
102
}
330
47
100
AcDbScale
 70
     0
300
6" = 1'-0"
140
6.0
141
12.0
290
     0
  0
SCALE
  5
68
102
{ACAD_REACTORS
330
47
102
}
330
47
100
AcDbScale
 70
     0
300
1'-0" = 1'-0"
140
12.0
141
12.0
290
     0
  0
VISUALSTYLE
  5
2F
102
{ACAD_REACTORS
330
2A
102
}
102
{ACAD_XDICTIONARY
360
224
102
}
330
2A
100
AcDbVisualStyle
  2
2dWireframe
 70
     4
177
     2
291
     0
 71
     0
176
     1
 72
     2
176
     1
 73
     0
176
     1
 90
        0
176
     1
 40
0.6
176
     1
 41
30.0
176
     1
 62
     5
 63
     7
421
 16777215
176
     1
 74
     1
176
     1
 91
        4
176
     1
 64
     7
176
     1
 65
   257
176
     1
 75
     1
176
     1
175
     1
176
     1
 42
1.0
176
     1
 92
        0
176
     1
 66
   257
176
     1
 43
1.0
176
     1
 76
     1
176
     1
 77
     6
176
     1
 78
     2
176
     1
 67
     7
176
     1
 79
     5
176
     1
170
     0
176
     1
171
     0
176
     1
290
     0
176
     1
 93
        1
176
     1
 44
0.0
176
     1
173
     0
176
     1
  0
VISUALSTYLE
  5
32
102
{ACAD_REACTORS
330
2A
102
}
102
{ACAD_XDICTIONARY
360
22A
102
}
330
2A
100
AcDbVisualStyle
  2
Basic
 70
     7
177
     2
291
     1
 71
     1
176
     1
 72
     0
176
     1
 73
     1
176
     1
 90
        0
176
     1
 40
0.6
176
     1
 41
30.0
176
     1
 62
     5
 63
     7
421
 16777215
176
     1
 74
     0
176
     1
 91
        4
176
     1
 64
     7
176
     1
 65
   257
176
     1
 75
     1
176
     1
175
     1
176
     1
 42
1.0
176
     1
 92
        8
176
     1
 66
     7
176
     1
 43
1.0
176
     1
 76
     1
176
     1
 77
     6
176
     1
 78
     2
176
     1
 67
     7
176
     1
 79
     5
176
     1
170
     0
176
     1
171
     0
176
     1
290
     0
176
     1
 93
        1
176
     1
 44
0.0
176
     1
173
     0
176
     1
  0
VISUALSTYLE
  5
36
102
{ACAD_REACTORS
330
2A
102
}
102
{ACAD_XDICTIONARY
360
232
102
}
330
2A
100
AcDbVisualStyle
  2
Brighten
 70
    12
177
     2
291
     1
 71
     2
176
     1
 72
     2
176
     1
 73
     0
176
     1
 90
        0
176
     1
 40
0.6
176
     1
 41
30.0
176
     1
 62
     5
 63
     7
421
 16777215
176
     1
 74
     1
176
     1
 91
        4
176
     1
 64
     7
176
     1
 65
   257
176
     1
 75
     1
176
     1
175
     1
176
     1
 42
1.0
176
     1
 92
        8
176
     1
 66
     7
176
     1
 43
1.0
176
     1
 76
     1
176
     1
 77
     6
176
     1
 78
     2
176
     1
 67
     7
176
     1
 79
     5
176
     1
170
     0
176
     1
171
     0
176
     1
290
     0
176
     1
 93
        1
176
     1
 44
50.0
176
     1
173
     0
176
     1
  0
VISUALSTYLE
  5
3A
102
{ACAD_REACTORS
330
2A
102
}
102
{ACAD_XDICTIONARY
360
23A
102
}
330
2A
100
AcDbVisualStyle
  2
ColorChange
 70
    16
177
     2
291
     1
 71
     2
176
     1
 72
     2
176
     1
 73
     3
176
     1
 90
        0
176
     1
 40
0.6
176
     1
 41
30.0
176
     1
 62
     5
 63
     8
421
  8421504
176
     1
 74
     1
176
     1
 91
        4
176
     1
 64
     7
176
     1
 65
   257
176
     1
 75
     1
176
     1
175
     1
176
     1
 42
1.0
176
     1
 92
        8
176
     1
 66
     8
424
  8421504
176
     1
 43
1.0
176
     1
 76
     1
176
     1
 77
     6
176
     1
 78
     2
176
     1
 67
     7
176
     1
 79
     5
176
     1
170
     0
176
     1
171
     0
176
     1
290
     0
176
     1
 93
        1
176
     1
 44
0.0
176
     1
173
     0
176
     1
  0
VISUALSTYLE
  5
34
102
{ACAD_REACTORS
330
2A
102
}
102
{ACAD_XDICTIONARY
360
22E
102
}
330
2A
100
AcDbVisualStyle
  2
Conceptual
 70
     9
177
     2
291
     0
 71
     3
176
     1
 72
     2
176
     1
 73
     0
176
     1
 90
        0
176
     1
 40
0.6
176
     1
 41
30.0
176
     1
 62
     5
 63
     7
421
 16777215
176
     1
 74
     2
176
     1
 91
        2
176
     1
 64
     7
176
     1
 65
   257
176
     1
 75
     1
176
     1
175
     1
176
     1
 42
179.0
176
     1
 92
        8
176
     1
 66
     7
176
     1
 43
1.0
176
     1
 76
     1
176
     1
 77
     6
176
     1
 78
     2
176
     1
 67
     7
176
     1
 79
     3
176
     1
170
     0
176
     1
171
     0
176
     1
290
     0
176
     1
 93
        1
176
     1
 44
0.0
176
     1
173
     0
176
     1
  0
VISUALSTYLE
  5
35
102
{ACAD_REACTORS
330
2A
102
}
102
{ACAD_XDICTIONARY
360
230
102
}
330
2A
100
AcDbVisualStyle
  2
Dim
 70
    11
177
     2
291
     1
 71
     2
176
     1
 72
     2
176
     1
 73
     0
176
     1
 90
        0
176
     1
 40
0.6
176
     1
 41
30.0
176
     1
 62
     5
 63
     7
421
 16777215
176
     1
 74
     1
176
     1
 91
        4
176
     1
 64
     7
176
     1
 65
   257
176
     1
 75
     1
176
     1
175
     1
176
     1
 42
1.0
176
     1
 92
        8
176
     1
 66
     7
176
     1
 43
1.0
176
     1
 76
     1
176
     1
 77
     6
176
     1
 78
     2
176
     1
 67
     7
176
     1
 79
     5
176
     1
170
     0
176
     1
171
     0
176
     1
290
     0
176
     1
 93
        1
176
     1
 44
-50.0
176
     1
173
     0
176
     1
  0
VISUALSTYLE
  5
3D
102
{ACAD_REACTORS
330
2A
102
}
102
{ACAD_XDICTIONARY
360
240
102
}
330
2A
100
AcDbVisualStyle
  2
EdgeColorOff
 70
    22
177
     2
291
     1
 71
     2
176
     0
 72
     2
176
     0
 73
     0
176
     0
 90
        0
176
     0
 40
0.6
176
     0
 41
30.0
176
     0
 62
     5
 63
     7
421
 16777215
176
     0
 74
     1
176
     0
 91
        4
176
     0
 64
     7
176
     0
 65
   257
176
     0
 75
     1
176
     0
175
     1
176
     0
 42
1.0
176
     0
 92
        8
176
     2
 66
     7
176
     0
 43
1.0
176
     0
 76
     1
176
     0
 77
     6
176
     0
 78
     2
176
     0
 67
     7
176
     0
 79
     5
176
     0
170
     0
176
     0
171
     0
176
     0
290
     0
176
     0
 93
        1
176
     0
 44
0.0
176
     0
173
     0
176
     0
  0
VISUALSTYLE
  5
39
102
{ACAD_REACTORS
330
2A
102
}
102
{ACAD_XDICTIONARY
360
238
102
}
330
2A
100
AcDbVisualStyle
  2
Facepattern
 70
    15
177
     2
291
     1
 71
     2
176
     1
 72
     2
176
     1
 73
     0
176
     1
 90
        0
176
     1
 40
0.6
176
     1
 41
30.0
176
     1
 62
     5
 63
     7
421
 16777215
176
     1
 74
     1
176
     1
 91
        4
176
     1
 64
     7
176
     1
 65
   257
176
     1
 75
     1
176
     1
175
     1
176
     1
 42
1.0
176
     1
 92
        8
176
     1
 66
     7
176
     1
 43
1.0
176
     1
 76
     1
176
     1
 77
     6
176
     1
 78
     2
176
     1
 67
     7
176
     1
 79
     5
176
     1
170
     0
176
     1
171
     0
176
     1
290
     0
176
     1
 93
        1
176
     1
 44
0.0
176
     1
173
     0
176
     1
  0
VISUALSTYLE
  5
2B
102
{ACAD_REACTORS
330
2A
102
}
102
{ACAD_XDICTIONARY
360
21C
102
}
330
2A
100
AcDbVisualStyle
  2
Flat
 70
     0
177
     2
291
     1
 71
     2
176
     1
 72
     1
176
     1
 73
     1
176
     1
 90
        2
176
     1
 40
0.6
176
     1
 41
30.0
176
     1
 62
     5
 63
     7
421
 16777215
176
     1
 74
     0
176
     1
 91
        0
176
     1
 64
     7
176
     1
 65
   257
176
     1
 75
     1
176
     1
175
     1
176
     1
 42
1.0
176
     1
 92
        8
176
     1
 66
     7
176
     1
 43
1.0
176
     1
 76
     1
176
     1
 77
     6
176
     1
 78
     2
176
     1
 67
     7
176
     1
 79
     5
176
     1
170
     0
176
     1
171
     0
176
     1
290
     0
176
     1
 93
       13
176
     1
 44
0.0
176
     1
173
     0
176
     1
  0
VISUALSTYLE
  5
2C
102
{ACAD_REACTORS
330
2A
102
}
102
{ACAD_XDICTIONARY
360
21E
102
}
330
2A
100
AcDbVisualStyle
  2
FlatWithEdges
 70
     1
177
     2
291
     1
 71
     2
176
     1
 72
     1
176
     1
 73
     1
176
     1
 90
        2
176
     1
 40
0.6
176
     1
 41
30.0
176
     1
 62
     5
 63
     7
421
 16777215
176
     1
 74
     1
176
     1
 91
        0
176
     1
 64
     7
176
     1
 65
   257
176
     1
 75
     1
176
     1
175
     1
176
     1
 42
1.0
176
     1
 92
        0
176
     1
 66
   257
176
     1
 43
1.0
176
     1
 76
     1
176
     1
 77
     6
176
     1
 78
     2
176
     1
 67
     7
176
     1
 79
     5
176
     1
170
     0
176
     1
171
     0
176
     1
290
     0
176
     1
 93
       13
176
     1
 44
0.0
176
     1
173
     0
176
     1
  0
VISUALSTYLE
  5
2D
102
{ACAD_REACTORS
330
2A
102
}
102
{ACAD_XDICTIONARY
360
220
102
}
330
2A
100
AcDbVisualStyle
  2
Gouraud
 70
     2
177
     2
291
     1
 71
     2
176
     1
 72
     2
176
     1
 73
     1
176
     1
 90
        2
176
     1
 40
0.6
176
     1
 41
30.0
176
     1
 62
     5
 63
     7
421
 16777215
176
     1
 74
     0
176
     1
 91
        0
176
     1
 64
     7
176
     1
 65
   257
176
     1
 75
     1
176
     1
175
     1
176
     1
 42
1.0
176
     1
 92
        0
176
     1
 66
     7
176
     1
 43
1.0
176
     1
 76
     1
176
     1
 77
     6
176
     1
 78
     2
176
     1
 67
     7
176
     1
 79
     5
176
     1
170
     0
176
     1
171
     0
176
     1
290
     0
176
     1
 93
       13
176
     1
 44
0.0
176
     1
173
     0
176
     1
  0
VISUALSTYLE
  5
2E
102
{ACAD_REACTORS
330
2A
102
}
102
{ACAD_XDICTIONARY
360
222
102
}
330
2A
100
AcDbVisualStyle
  2
GouraudWithEdges
 70
     3
177
     2
291
     1
 71
     2
176
     1
 72
     2
176
     1
 73
     1
176
     1
 90
        2
176
     1
 40
0.6
176
     1
 41
30.0
176
     1
 62
     5
 63
     7
421
 16777215
176
     1
 74
     1
176
     1
 91
        0
176
     1
 64
     7
176
     1
 65
   257
176
     1
 75
     1
176
     1
175
     1
176
     1
 42
1.0
176
     1
 92
        0
176
     1
 66
   257
176
     1
 43
1.0
176
     1
 76
     1
176
     1
 77
     6
176
     1
 78
     2
176
     1
 67
     7
176
     1
 79
     5
176
     1
170
     0
176
     1
171
     0
176
     1
290
     0
176
     1
 93
       13
176
     1
 44
0.0
176
     1
173
     0
176
     1
  0
VISUALSTYLE
  5
31
102
{ACAD_REACTORS
330
2A
102
}
102
{ACAD_XDICTIONARY
360
228
102
}
330
2A
100
AcDbVisualStyle
  2
Hidden
 70
     6
177
     2
291
     0
 71
     1
176
     1
 72
     2
176
     1
 73
     2
176
     1
 90
        0
176
     1
 40
0.6
176
     1
 41
30.0
176
     1
 62
     5
 63
     7
421
 16777215
176
     1
 74
     2
176
     1
 91
        2
176
     1
 64
     7
176
     1
 65
   257
176
     1
 75
     2
176
     1
175
     1
176
     1
 42
40.0
176
     1
 92
        0
176
     1
 66
   257
176
     1
 43
1.0
176
     1
 76
     1
176
     1
 77
     6
176
     1
 78
     2
176
     1
 67
     7
176
     1
 79
     3
176
     1
170
     0
176
     1
171
     0
176
     1
290
     0
176
     1
 93
        1
176
     1
 44
0.0
176
     1
173
     0
176
     1
  0
VISUALSTYLE
  5
3B
102
{ACAD_REACTORS
330
2A
102
}
102
{ACAD_XDICTIONARY
360
23C
102
}
330
2A
100
AcDbVisualStyle
  2
JitterOff
 70
    20
177
     2
291
     1
 71
     2
176
     0
 72
     2
176
     0
 73
     0
176
     0
 90
        0
176
     0
 40
0.6
176
     0
 41
30.0
176
     0
 62
     5
 63
     7
421
 16777215
176
     0
 74
     1
176
     0
 91
        4
176
     0
 64
     7
176
     0
 65
   257
176
     0
 75
     1
176
     0
175
     1
176
     0
 42
1.0
176
     0
 92
       10
176
     2
 66
     7
176
     0
 43
1.0
176
     0
 76
     1
176
     0
 77
     6
176
     0
 78
     2
176
     0
 67
     7
176
     0
 79
     5
176
     0
170
     0
176
     0
171
     0
176
     0
290
     0
176
     0
 93
        1
176
     0
 44
0.0
176
     0
173
     0
176
     0
  0
VISUALSTYLE
  5
38
102
{ACAD_REACTORS
330
2A
102
}
102
{ACAD_XDICTIONARY
360
236
102
}
330
2A
100
AcDbVisualStyle
  2
Linepattern
 70
    14
177
     2
291
     1
 71
     2
176
     1
 72
     2
176
     1
 73
     0
176
     1
 90
        0
176
     1
 40
0.6
176
     1
 41
30.0
176
     1
 62
     5
 63
     7
421
 16777215
176
     1
 74
     1
176
     1
 91
        4
176
     1
 64
     7
176
     1
 65
   257
176
     1
 75
     7
176
     1
175
     7
176
     1
 42
1.0
176
     1
 92
        8
176
     1
 66
     7
176
     1
 43
1.0
176
     1
 76
     1
176
     1
 77
     6
176
     1
 78
     2
176
     1
 67
     7
176
     1
 79
     5
176
     1
170
     0
176
     1
171
     0
176
     1
290
     0
176
     1
 93
        1
176
     1
 44
0.0
176
     1
173
     0
176
     1
  0
VISUALSTYLE
  5
3C
102
{ACAD_REACTORS
330
2A
102
}
102
{ACAD_XDICTIONARY
360
23E
102
}
330
2A
100
AcDbVisualStyle
  2
OverhangOff
 70
    21
177
     2
291
     1
 71
     2
176
     0
 72
     2
176
     0
 73
     0
176
     0
 90
        0
176
     0
 40
0.6
176
     0
 41
30.0
176
     0
 62
     5
 63
     7
421
 16777215
176
     0
 74
     1
176
     0
 91
        4
176
     0
 64
     7
176
     0
 65
   257
176
     0
 75
     1
176
     0
175
     1
176
     0
 42
1.0
176
     0
 92
        9
176
     2
 66
     7
176
     0
 43
1.0
176
     0
 76
     1
176
     0
 77
     6
176
     0
 78
     2
176
     0
 67
     7
176
     0
 79
     5
176
     0
170
     0
176
     0
171
     0
176
     0
290
     0
176
     0
 93
        1
176
     0
 44
0.0
176
     0
173
     0
176
     0
  0
VISUALSTYLE
  5
33
102
{ACAD_REACTORS
330
2A
102
}
102
{ACAD_XDICTIONARY
360
22C
102
}
330
2A
100
AcDbVisualStyle
  2
Realistic
 70
     8
177
     2
291
     0
 71
     2
176
     1
 72
     3
176
     1
 73
     0
176
     1
 90
        2
176
     1
 40
0.6
176
     1
 41
30.0
176
     1
 62
     5
 63
     7
421
 16777215
176
     1
 74
     0
176
     1
 91
        0
176
     1
 64
     7
176
     1
 65
   257
176
     1
 75
     1
176
     1
175
     1
176
     1
 42
1.0
176
     1
 92
        8
176
     1
 66
   257
176
     1
 43
1.0
176
     1
 76
     1
176
     1
 77
     6
176
     1
 78
     2
176
     1
 67
     7
176
     1
 79
     3
176
     1
170
     0
176
     1
171
     0
176
     1
290
     0
176
     1
 93
       13
176
     1
 44
0.0
176
     1
173
     0
176
     1
  0
VISUALSTYLE
  5
42
102
{ACAD_REACTORS
330
2A
102
}
102
{ACAD_XDICTIONARY
360
24A
102
}
330
2A
100
AcDbVisualStyle
  2
Shaded
 70
    27
177
     2
291
     0
 71
     2
176
     1
 72
     2
176
     1
 73
     1
176
     1
 90
        2
176
     1
 40
0.6
176
     1
 41
30.0
176
     1
 62
     5
 63
     7
421
 16777215
176
     1
 74
     0
176
     1
 91
        4
176
     1
 64
     7
176
     1
 65
   257
176
     1
 75
     1
176
     1
175
     1
176
     1
 42
1.0
176
     1
 92
        8
176
     1
 66
   257
176
     1
 43
1.0
176
     1
 76
     1
176
     1
 77
     6
176
     1
 78
     2
176
     1
 67
     8
425
  7895160
176
     1
 79
     3
176
     1
170
     0
176
     1
171
     0
176
     1
290
     0
176
     1
 93
        5
176
     1
 44
0.0
176
     1
173
     0
176
     1
  0
VISUALSTYLE
  5
41
102
{ACAD_REACTORS
330
2A
102
}
102
{ACAD_XDICTIONARY
360
248
102
}
330
2A
100
AcDbVisualStyle
  2
Shaded with edges
 70
    26
177
     2
291
     0
 71
     2
176
     1
 72
     2
176
     1
 73
     1
176
     1
 90
        2
176
     1
 40
0.6
176
     1
 41
30.0
176
     1
 62
     5
 63
     7
421
 16777215
176
     1
 74
     1
176
     1
 91
       10
176
     1
 64
     7
176
     1
 65
   257
176
     1
 75
     2
176
     1
175
     1
176
     1
 42
1.0
176
     1
 92
        8
176
     1
 66
   257
176
     1
 43
1.0
176
     1
 76
     1
176
     1
 77
     6
176
     1
 78
     2
176
     1
 67
     7
176
     1
 79
     3
176
     1
170
     0
176
     1
171
     0
176
     1
290
     0
176
     1
 93
        5
176
     1
 44
0.0
176
     1
173
     0
176
     1
  0
VISUALSTYLE
  5
3E
102
{ACAD_REACTORS
330
2A
102
}
102
{ACAD_XDICTIONARY
360
242
102
}
330
2A
100
AcDbVisualStyle
  2
Shades of Gray
 70
    23
177
     2
291
     0
 71
     2
176
     1
 72
     2
176
     1
 73
     3
176
     1
 90
        0
176
     1
 40
0.6
176
     1
 41
30.0
176
     1
 62
     5
 63
     7
421
 16777215
176
     1
 74
     2
176
     1
 91
        2
176
     1
 64
     7
176
     1
 65
     7
176
     1
 75
     1
176
     1
175
     1
176
     1
 42
40.0
176
     1
 92
        8
176
     1
 66
     7
176
     1
 43
1.0
176
     1
 76
     1
176
     1
 77
     6
176
     1
 78
     2
176
     1
 67
     7
176
     1
 79
     3
176
     1
170
     0
176
     1
171
     0
176
     1
290
     0
176
     1
 93
        1
176
     1
 44
0.0
176
     1
173
     0
176
     1
  0
VISUALSTYLE
  5
3F
102
{ACAD_REACTORS
330
2A
102
}
102
{ACAD_XDICTIONARY
360
244
102
}
330
2A
100
AcDbVisualStyle
  2
Sketchy
 70
    24
177
     2
291
     0
 71
     1
176
     1
 72
     2
176
     1
 73
     2
176
     1
 90
        0
176
     1
 40
0.6
176
     1
 41
30.0
176
     1
 62
     5
 63
     7
421
 16777215
176
     1
 74
     2
176
     1
 91
        2
176
     1
 64
     7
176
     1
 65
     7
176
     1
 75
     1
176
     1
175
     1
176
     1
 42
40.0
176
     1
 92
       11
176
     1
 66
     7
176
     1
 43
1.0
176
     1
 76
     1
176
     1
 77
     6
176
     1
 78
     2
176
     1
 67
     7
176
     1
 79
     6
176
     1
170
     0
176
     1
171
     0
176
     1
290
     0
176
     1
 93
        1
176
     1
 44
0.0
176
     1
173
     0
176
     1
  0
VISUALSTYLE
  5
37
102
{ACAD_REACTORS
330
2A
102
}
102
{ACAD_XDICTIONARY
360
234
102
}
330
2A
100
AcDbVisualStyle
  2
Thicken
 70
    13
177
     2
291
     1
 71
     2
176
     1
 72
     2
176
     1
 73
     0
176
     1
 90
        0
176
     1
 40
0.6
176
     1
 41
30.0
176
     1
 62
     5
 63
     7
421
 16777215
176
     1
 74
     1
176
     1
 91
        4
176
     1
 64
     7
176
     1
 65
   257
176
     1
 75
     1
176
     1
175
     1
176
     1
 42
1.0
176
     1
 92
       12
176
     1
 66
     7
176
     1
 43
1.0
176
     1
 76
     1
176
     1
 77
     6
176
     1
 78
     2
176
     1
 67
     7
176
     1
 79
     5
176
     1
170
     0
176
     1
171
     0
176
     1
290
     0
176
     1
 93
        1
176
     1
 44
0.0
176
     1
173
     0
176
     1
  0
VISUALSTYLE
  5
30
102
{ACAD_REACTORS
330
2A
102
}
102
{ACAD_XDICTIONARY
360
226
102
}
330
2A
100
AcDbVisualStyle
  2
Wireframe
 70
     5
177
     2
291
     0
 71
     0
176
     1
 72
     2
176
     1
 73
     0
176
     1
 90
        0
176
     1
 40
0.6
176
     1
 41
30.0
176
     1
 62
     5
 63
     7
421
 16777215
176
     1
 74
     1
176
     1
 91
        4
176
     1
 64
     7
176
     1
 65
   257
176
     1
 75
     1
176
     1
175
     1
176
     1
 42
1.0
176
     1
 92
        0
176
     1
 66
   257
176
     1
 43
1.0
176
     1
 76
     1
176
     1
 77
     6
176
     1
 78
     2
176
     1
 67
     7
176
     1
 79
     3
176
     1
170
     0
176
     1
171
     0
176
     1
290
     0
176
     1
 93
        1
176
     1
 44
0.0
176
     1
173
     0
176
     1
  0
VISUALSTYLE
  5
40
102
{ACAD_REACTORS
330
2A
102
}
102
{ACAD_XDICTIONARY
360
246
102
}
330
2A
100
AcDbVisualStyle
  2
X-Ray
 70
    25
177
     2
291
     0
 71
     2
176
     1
 72
     2
176
     1
 73
     1
176
     1
 90
        1
176
     1
 40
0.5
176
     1
 41
30.0
176
     1
 62
     5
 63
     7
421
 16777215
176
     1
 74
     1
176
     1
 91
        0
176
     1
 64
     7
176
     1
 65
   257
176
     1
 75
     1
176
     1
175
     1
176
     1
 42
1.0
176
     1
 92
        8
176
     1
 66
     7
176
     1
 43
1.0
176
     1
 76
     1
176
     1
 77
     6
176
     1
 78
     2
176
     1
 67
     7
176
     1
 79
     3
176
     1
170
     0
176
     1
171
     0
176
     1
290
     0
176
     1
 93
       13
176
     1
 44
0.0
176
     1
173
     0
176
     1
  0
DICTIONARYVAR
  5
21B
102
{ACAD_REACTORS
330
21A
102
}
330
21A
100
DictionaryVariables
280
     0
  1
1:1
  0
DICTIONARY
  5
224
330
2F
100
AcDbDictionary
280
     1
281
     1
  3
ACAD_XREC_ROUNDTRIP
360
225
  0
DICTIONARY
  5
22A
330
32
100
AcDbDictionary
280
     1
281
     1
  3
ACAD_XREC_ROUNDTRIP
360
22B
  0
DICTIONARY
  5
232
330
36
100
AcDbDictionary
280
     1
281
     1
  3
ACAD_XREC_ROUNDTRIP
360
233
  0
DICTIONARY
  5
23A
330
3A
100
AcDbDictionary
280
     1
281
     1
  3
ACAD_XREC_ROUNDTRIP
360
23B
  0
DICTIONARY
  5
22E
330
34
100
AcDbDictionary
280
     1
281
     1
  3
ACAD_XREC_ROUNDTRIP
360
22F
  0
DICTIONARY
  5
230
330
35
100
AcDbDictionary
280
     1
281
     1
  3
ACAD_XREC_ROUNDTRIP
360
231
  0
DICTIONARY
  5
240
330
3D
100
AcDbDictionary
280
     1
281
     1
  3
ACAD_XREC_ROUNDTRIP
360
241
  0
DICTIONARY
  5
238
330
39
100
AcDbDictionary
280
     1
281
     1
  3
ACAD_XREC_ROUNDTRIP
360
239
  0
DICTIONARY
  5
21C
330
2B
100
AcDbDictionary
280
     1
281
     1
  3
ACAD_XREC_ROUNDTRIP
360
21D
  0
DICTIONARY
  5
21E
330
2C
100
AcDbDictionary
280
     1
281
     1
  3
ACAD_XREC_ROUNDTRIP
360
21F
  0
DICTIONARY
  5
220
330
2D
100
AcDbDictionary
280
     1
281
     1
  3
ACAD_XREC_ROUNDTRIP
360
221
  0
DICTIONARY
  5
222
330
2E
100
AcDbDictionary
280
     1
281
     1
  3
ACAD_XREC_ROUNDTRIP
360
223
  0
DICTIONARY
  5
228
330
31
100
AcDbDictionary
280
     1
281
     1
  3
ACAD_XREC_ROUNDTRIP
360
229
  0
DICTIONARY
  5
23C
330
3B
100
AcDbDictionary
280
     1
281
     1
  3
ACAD_XREC_ROUNDTRIP
360
23D
  0
DICTIONARY
  5
236
330
38
100
AcDbDictionary
280
     1
281
     1
  3
ACAD_XREC_ROUNDTRIP
360
237
  0
DICTIONARY
  5
23E
330
3C
100
AcDbDictionary
280
     1
281
     1
  3
ACAD_XREC_ROUNDTRIP
360
23F
  0
DICTIONARY
  5
22C
330
33
100
AcDbDictionary
280
     1
281
     1
  3
ACAD_XREC_ROUNDTRIP
360
22D
  0
DICTIONARY
  5
24A
330
42
100
AcDbDictionary
280
     1
281
     1
  3
ACAD_XREC_ROUNDTRIP
360
24B
  0
DICTIONARY
  5
248
330
41
100
AcDbDictionary
280
     1
281
     1
  3
ACAD_XREC_ROUNDTRIP
360
249
  0
DICTIONARY
  5
242
330
3E
100
AcDbDictionary
280
     1
281
     1
  3
ACAD_XREC_ROUNDTRIP
360
243
  0
DICTIONARY
  5
244
330
3F
100
AcDbDictionary
280
     1
281
     1
  3
ACAD_XREC_ROUNDTRIP
360
245
  0
DICTIONARY
  5
234
330
37
100
AcDbDictionary
280
     1
281
     1
  3
ACAD_XREC_ROUNDTRIP
360
235
  0
DICTIONARY
  5
226
330
30
100
AcDbDictionary
280
     1
281
     1
  3
ACAD_XREC_ROUNDTRIP
360
227
  0
DICTIONARY
  5
246
330
40
100
AcDbDictionary
280
     1
281
     1
  3
ACAD_XREC_ROUNDTRIP
360
247
  0
XRECORD
  5
225
102
{ACAD_REACTORS
330
224
102
}
330
224
100
AcDbXrecord
280
     1
102
RTVSPost2010Prop28
280
     1
102
RTVSPost2010PropOp28
 70
     1
102
RTVSPost2010Prop29
280
     1
102
RTVSPost2010PropOp29
 70
     1
102
RTVSPost2010Prop30
280
     0
102
RTVSPost2010PropOp30
 70
     1
102
RTVSPost2010Prop31
280
     0
102
RTVSPost2010PropOp31
 70
     1
102
RTVSPost2010Prop32
280
     0
102
RTVSPost2010PropOp32
 70
     1
102
RTVSPost2010Prop33
280
     0
102
RTVSPost2010PropOp33
 70
     1
102
RTVSPost2010Prop34
280
     0
102
RTVSPost2010PropOp34
 70
     1
102
RTVSPost2010Prop35
280
     0
102
RTVSPost2010PropOp35
 70
     1
102
RTVSPost2010Prop36
280
     0
102
RTVSPost2010PropOp36
 70
     1
102
RTVSPost2010Prop37
 90
       50
102
RTVSPost2010PropOp37
 70
     1
102
RTVSPost2010Prop38
140
0.0
102
RTVSPost2010PropOp38
 70
     1
102
RTVSPost2010Prop39
140
1.0
102
RTVSPost2010PropOp39
 70
     1
102
RTVSPost2010Prop40
 90
        0
102
RTVSPost2010PropOp40
 70
     1
102
RTVSPost2010Prop41ColorIndex
 90
       18
102
RTVSPost2010Prop41ColorRGB
 90
        0
102
RTVSPost2010PropOp41
 70
     1
102
RTVSPost2010Prop42
 90
       50
102
RTVSPost2010PropOp42
 70
     1
102
RTVSPost2010Prop43
 90
        3
102
RTVSPost2010PropOp43
 70
     1
102
RTVSPost2010Prop44ColorIndex
 90
        5
102
RTVSPost2010Prop44ColorRGB
 90
      255
102
RTVSPost2010PropOp44
 70
     1
102
RTVSPost2010Prop45
280
     0
102
RTVSPost2010PropOp45
 70
     1
102
RTVSPost2010Prop46
 90
       50
102
RTVSPost2010PropOp46
 70
     1
102
RTVSPost2010Prop47
 90
       50
102
RTVSPost2010PropOp47
 70
     1
102
RTVSPost2010Prop48
 90
       50
102
RTVSPost2010PropOp48
 70
     1
102
RTVSPost2010Prop49
280
     0
102
RTVSPost2010PropOp49
 70
     1
102
RTVSPost2010Prop50
 90
       50
102
RTVSPost2010PropOp50
 70
     1
102
RTVSPost2010Prop51ColorIndex
 90
      256
102
RTVSPost2010Prop51ColorRGB
 90
-16777216
102
RTVSPost2010PropOp51
 70
     0
102
RTVSPost2010Prop52
140
1.0
102
RTVSPost2010PropOp52
 70
     0
102
RTVSPost2010Prop53
 90
        2
102
RTVSPost2010PropOp53
 70
     1
102
RTVSPost2010Prop54
  1
strokes_ogs.tif
102
RTVSPost2010PropOp54
 70
     1
102
RTVSPost2010Prop55
280
     0
102
RTVSPost2010PropOp55
 70
     1
102
RTVSPost2010Prop56
140
1.0
102
RTVSPost2010PropOp56
 70
     1
102
RTVSPost2010Prop57
140
1.0
102
RTVSPost2010PropOp57
 70
     1
  0
XRECORD
  5
22B
102
{ACAD_REACTORS
330
22A
102
}
330
22A
100
AcDbXrecord
280
     1
102
RTVSPost2010Prop28
280
     0
102
RTVSPost2010PropOp28
 70
     1
102
RTVSPost2010Prop29
280
     1
102
RTVSPost2010PropOp29
 70
     1
102
RTVSPost2010Prop30
280
     1
102
RTVSPost2010PropOp30
 70
     1
102
RTVSPost2010Prop31
280
     0
102
RTVSPost2010PropOp31
 70
     1
102
RTVSPost2010Prop32
280
     0
102
RTVSPost2010PropOp32
 70
     1
102
RTVSPost2010Prop33
280
     0
102
RTVSPost2010PropOp33
 70
     1
102
RTVSPost2010Prop34
280
     0
102
RTVSPost2010PropOp34
 70
     1
102
RTVSPost2010Prop35
280
     0
102
RTVSPost2010PropOp35
 70
     1
102
RTVSPost2010Prop36
280
     0
102
RTVSPost2010PropOp36
 70
     1
102
RTVSPost2010Prop37
 90
       50
102
RTVSPost2010PropOp37
 70
     1
102
RTVSPost2010Prop38
140
0.0
102
RTVSPost2010PropOp38
 70
     1
102
RTVSPost2010Prop39
140
1.0
102
RTVSPost2010PropOp39
 70
     1
102
RTVSPost2010Prop40
 90
        0
102
RTVSPost2010PropOp40
 70
     1
102
RTVSPost2010Prop41ColorIndex
 90
       18
102
RTVSPost2010Prop41ColorRGB
 90
        0
102
RTVSPost2010PropOp41
 70
     1
102
RTVSPost2010Prop42
 90
       50
102
RTVSPost2010PropOp42
 70
     1
102
RTVSPost2010Prop43
 90
        3
102
RTVSPost2010PropOp43
 70
     1
102
RTVSPost2010Prop44ColorIndex
 90
        5
102
RTVSPost2010Prop44ColorRGB
 90
      255
102
RTVSPost2010PropOp44
 70
     1
102
RTVSPost2010Prop45
280
     0
102
RTVSPost2010PropOp45
 70
     1
102
RTVSPost2010Prop46
 90
       50
102
RTVSPost2010PropOp46
 70
     1
102
RTVSPost2010Prop47
 90
       50
102
RTVSPost2010PropOp47
 70
     1
102
RTVSPost2010Prop48
 90
       50
102
RTVSPost2010PropOp48
 70
     1
102
RTVSPost2010Prop49
280
     0
102
RTVSPost2010PropOp49
 70
     1
102
RTVSPost2010Prop50
 90
       50
102
RTVSPost2010PropOp50
 70
     1
102
RTVSPost2010Prop51ColorIndex
 90
      256
102
RTVSPost2010Prop51ColorRGB
 90
-16777216
102
RTVSPost2010PropOp51
 70
     0
102
RTVSPost2010Prop52
140
1.0
102
RTVSPost2010PropOp52
 70
     0
102
RTVSPost2010Prop53
 90
        2
102
RTVSPost2010PropOp53
 70
     1
102
RTVSPost2010Prop54
  1
strokes_ogs.tif
102
RTVSPost2010PropOp54
 70
     1
102
RTVSPost2010Prop55
280
     0
102
RTVSPost2010PropOp55
 70
     1
102
RTVSPost2010Prop56
140
1.0
102
RTVSPost2010PropOp56
 70
     1
102
RTVSPost2010Prop57
140
1.0
102
RTVSPost2010PropOp57
 70
     1
  0
XRECORD
  5
233
102
{ACAD_REACTORS
330
232
102
}
330
232
100
AcDbXrecord
280
     1
102
RTVSPost2010Prop28
280
     0
102
RTVSPost2010PropOp28
 70
     1
102
RTVSPost2010Prop29
280
     1
102
RTVSPost2010PropOp29
 70
     1
102
RTVSPost2010Prop30
280
     1
102
RTVSPost2010PropOp30
 70
     1
102
RTVSPost2010Prop31
280
     0
102
RTVSPost2010PropOp31
 70
     1
102
RTVSPost2010Prop32
280
     0
102
RTVSPost2010PropOp32
 70
     1
102
RTVSPost2010Prop33
280
     0
102
RTVSPost2010PropOp33
 70
     1
102
RTVSPost2010Prop34
280
     0
102
RTVSPost2010PropOp34
 70
     1
102
RTVSPost2010Prop35
280
     0
102
RTVSPost2010PropOp35
 70
     1
102
RTVSPost2010Prop36
280
     0
102
RTVSPost2010PropOp36
 70
     1
102
RTVSPost2010Prop37
 90
       50
102
RTVSPost2010PropOp37
 70
     1
102
RTVSPost2010Prop38
140
0.0
102
RTVSPost2010PropOp38
 70
     1
102
RTVSPost2010Prop39
140
1.0
102
RTVSPost2010PropOp39
 70
     1
102
RTVSPost2010Prop40
 90
        0
102
RTVSPost2010PropOp40
 70
     1
102
RTVSPost2010Prop41ColorIndex
 90
       18
102
RTVSPost2010Prop41ColorRGB
 90
        0
102
RTVSPost2010PropOp41
 70
     1
102
RTVSPost2010Prop42
 90
       50
102
RTVSPost2010PropOp42
 70
     1
102
RTVSPost2010Prop43
 90
        3
102
RTVSPost2010PropOp43
 70
     1
102
RTVSPost2010Prop44ColorIndex
 90
        5
102
RTVSPost2010Prop44ColorRGB
 90
      255
102
RTVSPost2010PropOp44
 70
     1
102
RTVSPost2010Prop45
280
     0
102
RTVSPost2010PropOp45
 70
     1
102
RTVSPost2010Prop46
 90
       50
102
RTVSPost2010PropOp46
 70
     1
102
RTVSPost2010Prop47
 90
       50
102
RTVSPost2010PropOp47
 70
     1
102
RTVSPost2010Prop48
 90
       50
102
RTVSPost2010PropOp48
 70
     1
102
RTVSPost2010Prop49
280
     0
102
RTVSPost2010PropOp49
 70
     1
102
RTVSPost2010Prop50
 90
       50
102
RTVSPost2010PropOp50
 70
     1
102
RTVSPost2010Prop51ColorIndex
 90
      256
102
RTVSPost2010Prop51ColorRGB
 90
-16777216
102
RTVSPost2010PropOp51
 70
     0
102
RTVSPost2010Prop52
140
1.0
102
RTVSPost2010PropOp52
 70
     0
102
RTVSPost2010Prop53
 90
        2
102
RTVSPost2010PropOp53
 70
     1
102
RTVSPost2010Prop54
  1
strokes_ogs.tif
102
RTVSPost2010PropOp54
 70
     1
102
RTVSPost2010Prop55
280
     0
102
RTVSPost2010PropOp55
 70
     1
102
RTVSPost2010Prop56
140
1.0
102
RTVSPost2010PropOp56
 70
     1
102
RTVSPost2010Prop57
140
1.0
102
RTVSPost2010PropOp57
 70
     1
  0
XRECORD
  5
23B
102
{ACAD_REACTORS
330
23A
102
}
330
23A
100
AcDbXrecord
280
     1
102
RTVSPost2010Prop28
280
     0
102
RTVSPost2010PropOp28
 70
     1
102
RTVSPost2010Prop29
280
     1
102
RTVSPost2010PropOp29
 70
     1
102
RTVSPost2010Prop30
280
     1
102
RTVSPost2010PropOp30
 70
     1
102
RTVSPost2010Prop31
280
     0
102
RTVSPost2010PropOp31
 70
     1
102
RTVSPost2010Prop32
280
     0
102
RTVSPost2010PropOp32
 70
     1
102
RTVSPost2010Prop33
280
     0
102
RTVSPost2010PropOp33
 70
     1
102
RTVSPost2010Prop34
280
     0
102
RTVSPost2010PropOp34
 70
     1
102
RTVSPost2010Prop35
280
     0
102
RTVSPost2010PropOp35
 70
     1
102
RTVSPost2010Prop36
280
     0
102
RTVSPost2010PropOp36
 70
     1
102
RTVSPost2010Prop37
 90
       50
102
RTVSPost2010PropOp37
 70
     1
102
RTVSPost2010Prop38
140
0.0
102
RTVSPost2010PropOp38
 70
     1
102
RTVSPost2010Prop39
140
1.0
102
RTVSPost2010PropOp39
 70
     1
102
RTVSPost2010Prop40
 90
        0
102
RTVSPost2010PropOp40
 70
     1
102
RTVSPost2010Prop41ColorIndex
 90
       18
102
RTVSPost2010Prop41ColorRGB
 90
        0
102
RTVSPost2010PropOp41
 70
     1
102
RTVSPost2010Prop42
 90
       50
102
RTVSPost2010PropOp42
 70
     1
102
RTVSPost2010Prop43
 90
        3
102
RTVSPost2010PropOp43
 70
     1
102
RTVSPost2010Prop44ColorIndex
 90
        5
102
RTVSPost2010Prop44ColorRGB
 90
      255
102
RTVSPost2010PropOp44
 70
     1
102
RTVSPost2010Prop45
280
     0
102
RTVSPost2010PropOp45
 70
     1
102
RTVSPost2010Prop46
 90
       50
102
RTVSPost2010PropOp46
 70
     1
102
RTVSPost2010Prop47
 90
       50
102
RTVSPost2010PropOp47
 70
     1
102
RTVSPost2010Prop48
 90
       50
102
RTVSPost2010PropOp48
 70
     1
102
RTVSPost2010Prop49
280
     0
102
RTVSPost2010PropOp49
 70
     1
102
RTVSPost2010Prop50
 90
       50
102
RTVSPost2010PropOp50
 70
     1
102
RTVSPost2010Prop51ColorIndex
 90
      256
102
RTVSPost2010Prop51ColorRGB
 90
-16777216
102
RTVSPost2010PropOp51
 70
     0
102
RTVSPost2010Prop52
140
1.0
102
RTVSPost2010PropOp52
 70
     0
102
RTVSPost2010Prop53
 90
        2
102
RTVSPost2010PropOp53
 70
     1
102
RTVSPost2010Prop54
  1
strokes_ogs.tif
102
RTVSPost2010PropOp54
 70
     1
102
RTVSPost2010Prop55
280
     0
102
RTVSPost2010PropOp55
 70
     1
102
RTVSPost2010Prop56
140
1.0
102
RTVSPost2010PropOp56
 70
     1
102
RTVSPost2010Prop57
140
1.0
102
RTVSPost2010PropOp57
 70
     1
  0
XRECORD
  5
22F
102
{ACAD_REACTORS
330
22E
102
}
330
22E
100
AcDbXrecord
280
     1
102
RTVSPost2010Prop28
280
     0
102
RTVSPost2010PropOp28
 70
     1
102
RTVSPost2010Prop29
280
     1
102
RTVSPost2010PropOp29
 70
     1
102
RTVSPost2010Prop30
280
     1
102
RTVSPost2010PropOp30
 70
     1
102
RTVSPost2010Prop31
280
     0
102
RTVSPost2010PropOp31
 70
     1
102
RTVSPost2010Prop32
280
     0
102
RTVSPost2010PropOp32
 70
     1
102
RTVSPost2010Prop33
280
     0
102
RTVSPost2010PropOp33
 70
     1
102
RTVSPost2010Prop34
280
     0
102
RTVSPost2010PropOp34
 70
     1
102
RTVSPost2010Prop35
280
     0
102
RTVSPost2010PropOp35
 70
     1
102
RTVSPost2010Prop36
280
     0
102
RTVSPost2010PropOp36
 70
     1
102
RTVSPost2010Prop37
 90
       50
102
RTVSPost2010PropOp37
 70
     1
102
RTVSPost2010Prop38
140
0.0
102
RTVSPost2010PropOp38
 70
     1
102
RTVSPost2010Prop39
140
1.0
102
RTVSPost2010PropOp39
 70
     1
102
RTVSPost2010Prop40
 90
        0
102
RTVSPost2010PropOp40
 70
     1
102
RTVSPost2010Prop41ColorIndex
 90
       18
102
RTVSPost2010Prop41ColorRGB
 90
        0
102
RTVSPost2010PropOp41
 70
     1
102
RTVSPost2010Prop42
 90
       50
102
RTVSPost2010PropOp42
 70
     1
102
RTVSPost2010Prop43
 90
        3
102
RTVSPost2010PropOp43
 70
     1
102
RTVSPost2010Prop44ColorIndex
 90
        5
102
RTVSPost2010Prop44ColorRGB
 90
      255
102
RTVSPost2010PropOp44
 70
     1
102
RTVSPost2010Prop45
280
     0
102
RTVSPost2010PropOp45
 70
     1
102
RTVSPost2010Prop46
 90
       50
102
RTVSPost2010PropOp46
 70
     1
102
RTVSPost2010Prop47
 90
       50
102
RTVSPost2010PropOp47
 70
     1
102
RTVSPost2010Prop48
 90
       50
102
RTVSPost2010PropOp48
 70
     1
102
RTVSPost2010Prop49
280
     0
102
RTVSPost2010PropOp49
 70
     1
102
RTVSPost2010Prop50
 90
       50
102
RTVSPost2010PropOp50
 70
     1
102
RTVSPost2010Prop51ColorIndex
 90
      256
102
RTVSPost2010Prop51ColorRGB
 90
-16777216
102
RTVSPost2010PropOp51
 70
     0
102
RTVSPost2010Prop52
140
1.0
102
RTVSPost2010PropOp52
 70
     0
102
RTVSPost2010Prop53
 90
        2
102
RTVSPost2010PropOp53
 70
     1
102
RTVSPost2010Prop54
  1
strokes_ogs.tif
102
RTVSPost2010PropOp54
 70
     1
102
RTVSPost2010Prop55
280
     0
102
RTVSPost2010PropOp55
 70
     1
102
RTVSPost2010Prop56
140
1.0
102
RTVSPost2010PropOp56
 70
     1
102
RTVSPost2010Prop57
140
1.0
102
RTVSPost2010PropOp57
 70
     1
  0
XRECORD
  5
231
102
{ACAD_REACTORS
330
230
102
}
330
230
100
AcDbXrecord
280
     1
102
RTVSPost2010Prop28
280
     0
102
RTVSPost2010PropOp28
 70
     1
102
RTVSPost2010Prop29
280
     1
102
RTVSPost2010PropOp29
 70
     1
102
RTVSPost2010Prop30
280
     1
102
RTVSPost2010PropOp30
 70
     1
102
RTVSPost2010Prop31
280
     0
102
RTVSPost2010PropOp31
 70
     1
102
RTVSPost2010Prop32
280
     0
102
RTVSPost2010PropOp32
 70
     1
102
RTVSPost2010Prop33
280
     0
102
RTVSPost2010PropOp33
 70
     1
102
RTVSPost2010Prop34
280
     0
102
RTVSPost2010PropOp34
 70
     1
102
RTVSPost2010Prop35
280
     0
102
RTVSPost2010PropOp35
 70
     1
102
RTVSPost2010Prop36
280
     0
102
RTVSPost2010PropOp36
 70
     1
102
RTVSPost2010Prop37
 90
       50
102
RTVSPost2010PropOp37
 70
     1
102
RTVSPost2010Prop38
140
0.0
102
RTVSPost2010PropOp38
 70
     1
102
RTVSPost2010Prop39
140
1.0
102
RTVSPost2010PropOp39
 70
     1
102
RTVSPost2010Prop40
 90
        0
102
RTVSPost2010PropOp40
 70
     1
102
RTVSPost2010Prop41ColorIndex
 90
       18
102
RTVSPost2010Prop41ColorRGB
 90
        0
102
RTVSPost2010PropOp41
 70
     1
102
RTVSPost2010Prop42
 90
       50
102
RTVSPost2010PropOp42
 70
     1
102
RTVSPost2010Prop43
 90
        3
102
RTVSPost2010PropOp43
 70
     1
102
RTVSPost2010Prop44ColorIndex
 90
        5
102
RTVSPost2010Prop44ColorRGB
 90
      255
102
RTVSPost2010PropOp44
 70
     1
102
RTVSPost2010Prop45
280
     0
102
RTVSPost2010PropOp45
 70
     1
102
RTVSPost2010Prop46
 90
       50
102
RTVSPost2010PropOp46
 70
     1
102
RTVSPost2010Prop47
 90
       50
102
RTVSPost2010PropOp47
 70
     1
102
RTVSPost2010Prop48
 90
       50
102
RTVSPost2010PropOp48
 70
     1
102
RTVSPost2010Prop49
280
     0
102
RTVSPost2010PropOp49
 70
     1
102
RTVSPost2010Prop50
 90
       50
102
RTVSPost2010PropOp50
 70
     1
102
RTVSPost2010Prop51ColorIndex
 90
      256
102
RTVSPost2010Prop51ColorRGB
 90
-16777216
102
RTVSPost2010PropOp51
 70
     0
102
RTVSPost2010Prop52
140
1.0
102
RTVSPost2010PropOp52
 70
     0
102
RTVSPost2010Prop53
 90
        2
102
RTVSPost2010PropOp53
 70
     1
102
RTVSPost2010Prop54
  1
strokes_ogs.tif
102
RTVSPost2010PropOp54
 70
     1
102
RTVSPost2010Prop55
280
     0
102
RTVSPost2010PropOp55
 70
     1
102
RTVSPost2010Prop56
140
1.0
102
RTVSPost2010PropOp56
 70
     1
102
RTVSPost2010Prop57
140
1.0
102
RTVSPost2010PropOp57
 70
     1
  0
XRECORD
  5
241
102
{ACAD_REACTORS
330
240
102
}
330
240
100
AcDbXrecord
280
     1
102
RTVSPost2010Prop28
280
     0
102
RTVSPost2010PropOp28
 70
     0
102
RTVSPost2010Prop29
280
     1
102
RTVSPost2010PropOp29
 70
     0
102
RTVSPost2010Prop30
280
     1
102
RTVSPost2010PropOp30
 70
     0
102
RTVSPost2010Prop31
280
     0
102
RTVSPost2010PropOp31
 70
     0
102
RTVSPost2010Prop32
280
     0
102
RTVSPost2010PropOp32
 70
     0
102
RTVSPost2010Prop33
280
     0
102
RTVSPost2010PropOp33
 70
     0
102
RTVSPost2010Prop34
280
     0
102
RTVSPost2010PropOp34
 70
     0
102
RTVSPost2010Prop35
280
     0
102
RTVSPost2010PropOp35
 70
     0
102
RTVSPost2010Prop36
280
     0
102
RTVSPost2010PropOp36
 70
     0
102
RTVSPost2010Prop37
 90
       50
102
RTVSPost2010PropOp37
 70
     0
102
RTVSPost2010Prop38
140
0.0
102
RTVSPost2010PropOp38
 70
     0
102
RTVSPost2010Prop39
140
1.0
102
RTVSPost2010PropOp39
 70
     0
102
RTVSPost2010Prop40
 90
        0
102
RTVSPost2010PropOp40
 70
     0
102
RTVSPost2010Prop41ColorIndex
 90
       18
102
RTVSPost2010Prop41ColorRGB
 90
        0
102
RTVSPost2010PropOp41
 70
     0
102
RTVSPost2010Prop42
 90
       50
102
RTVSPost2010PropOp42
 70
     0
102
RTVSPost2010Prop43
 90
        3
102
RTVSPost2010PropOp43
 70
     0
102
RTVSPost2010Prop44ColorIndex
 90
        5
102
RTVSPost2010Prop44ColorRGB
 90
      255
102
RTVSPost2010PropOp44
 70
     0
102
RTVSPost2010Prop45
280
     0
102
RTVSPost2010PropOp45
 70
     0
102
RTVSPost2010Prop46
 90
       50
102
RTVSPost2010PropOp46
 70
     0
102
RTVSPost2010Prop47
 90
       50
102
RTVSPost2010PropOp47
 70
     0
102
RTVSPost2010Prop48
 90
       50
102
RTVSPost2010PropOp48
 70
     0
102
RTVSPost2010Prop49
280
     0
102
RTVSPost2010PropOp49
 70
     0
102
RTVSPost2010Prop50
 90
       50
102
RTVSPost2010PropOp50
 70
     0
102
RTVSPost2010Prop51ColorIndex
 90
      256
102
RTVSPost2010Prop51ColorRGB
 90
-16777216
102
RTVSPost2010PropOp51
 70
     0
102
RTVSPost2010Prop52
140
1.0
102
RTVSPost2010PropOp52
 70
     0
102
RTVSPost2010Prop53
 90
        2
102
RTVSPost2010PropOp53
 70
     0
102
RTVSPost2010Prop54
  1
strokes_ogs.tif
102
RTVSPost2010PropOp54
 70
     0
102
RTVSPost2010Prop55
280
     0
102
RTVSPost2010PropOp55
 70
     0
102
RTVSPost2010Prop56
140
1.0
102
RTVSPost2010PropOp56
 70
     0
102
RTVSPost2010Prop57
140
1.0
102
RTVSPost2010PropOp57
 70
     0
  0
XRECORD
  5
239
102
{ACAD_REACTORS
330
238
102
}
330
238
100
AcDbXrecord
280
     1
102
RTVSPost2010Prop28
280
     0
102
RTVSPost2010PropOp28
 70
     1
102
RTVSPost2010Prop29
280
     1
102
RTVSPost2010PropOp29
 70
     1
102
RTVSPost2010Prop30
280
     1
102
RTVSPost2010PropOp30
 70
     1
102
RTVSPost2010Prop31
280
     0
102
RTVSPost2010PropOp31
 70
     1
102
RTVSPost2010Prop32
280
     0
102
RTVSPost2010PropOp32
 70
     1
102
RTVSPost2010Prop33
280
     0
102
RTVSPost2010PropOp33
 70
     1
102
RTVSPost2010Prop34
280
     0
102
RTVSPost2010PropOp34
 70
     1
102
RTVSPost2010Prop35
280
     0
102
RTVSPost2010PropOp35
 70
     1
102
RTVSPost2010Prop36
280
     0
102
RTVSPost2010PropOp36
 70
     1
102
RTVSPost2010Prop37
 90
       50
102
RTVSPost2010PropOp37
 70
     1
102
RTVSPost2010Prop38
140
0.0
102
RTVSPost2010PropOp38
 70
     1
102
RTVSPost2010Prop39
140
1.0
102
RTVSPost2010PropOp39
 70
     1
102
RTVSPost2010Prop40
 90
        0
102
RTVSPost2010PropOp40
 70
     1
102
RTVSPost2010Prop41ColorIndex
 90
       18
102
RTVSPost2010Prop41ColorRGB
 90
        0
102
RTVSPost2010PropOp41
 70
     1
102
RTVSPost2010Prop42
 90
       50
102
RTVSPost2010PropOp42
 70
     1
102
RTVSPost2010Prop43
 90
        3
102
RTVSPost2010PropOp43
 70
     1
102
RTVSPost2010Prop44ColorIndex
 90
        5
102
RTVSPost2010Prop44ColorRGB
 90
      255
102
RTVSPost2010PropOp44
 70
     1
102
RTVSPost2010Prop45
280
     0
102
RTVSPost2010PropOp45
 70
     1
102
RTVSPost2010Prop46
 90
       50
102
RTVSPost2010PropOp46
 70
     1
102
RTVSPost2010Prop47
 90
       50
102
RTVSPost2010PropOp47
 70
     1
102
RTVSPost2010Prop48
 90
       50
102
RTVSPost2010PropOp48
 70
     1
102
RTVSPost2010Prop49
280
     0
102
RTVSPost2010PropOp49
 70
     1
102
RTVSPost2010Prop50
 90
       50
102
RTVSPost2010PropOp50
 70
     1
102
RTVSPost2010Prop51ColorIndex
 90
      256
102
RTVSPost2010Prop51ColorRGB
 90
-16777216
102
RTVSPost2010PropOp51
 70
     0
102
RTVSPost2010Prop52
140
1.0
102
RTVSPost2010PropOp52
 70
     0
102
RTVSPost2010Prop53
 90
        2
102
RTVSPost2010PropOp53
 70
     1
102
RTVSPost2010Prop54
  1
strokes_ogs.tif
102
RTVSPost2010PropOp54
 70
     1
102
RTVSPost2010Prop55
280
     0
102
RTVSPost2010PropOp55
 70
     1
102
RTVSPost2010Prop56
140
1.0
102
RTVSPost2010PropOp56
 70
     1
102
RTVSPost2010Prop57
140
1.0
102
RTVSPost2010PropOp57
 70
     1
  0
XRECORD
  5
21D
102
{ACAD_REACTORS
330
21C
102
}
330
21C
100
AcDbXrecord
280
     1
102
RTVSPost2010Prop28
280
     0
102
RTVSPost2010PropOp28
 70
     1
102
RTVSPost2010Prop29
280
     1
102
RTVSPost2010PropOp29
 70
     1
102
RTVSPost2010Prop30
280
     1
102
RTVSPost2010PropOp30
 70
     1
102
RTVSPost2010Prop31
280
     0
102
RTVSPost2010PropOp31
 70
     1
102
RTVSPost2010Prop32
280
     0
102
RTVSPost2010PropOp32
 70
     1
102
RTVSPost2010Prop33
280
     0
102
RTVSPost2010PropOp33
 70
     1
102
RTVSPost2010Prop34
280
     0
102
RTVSPost2010PropOp34
 70
     1
102
RTVSPost2010Prop35
280
     0
102
RTVSPost2010PropOp35
 70
     1
102
RTVSPost2010Prop36
280
     0
102
RTVSPost2010PropOp36
 70
     1
102
RTVSPost2010Prop37
 90
       50
102
RTVSPost2010PropOp37
 70
     1
102
RTVSPost2010Prop38
140
0.0
102
RTVSPost2010PropOp38
 70
     1
102
RTVSPost2010Prop39
140
1.0
102
RTVSPost2010PropOp39
 70
     1
102
RTVSPost2010Prop40
 90
        0
102
RTVSPost2010PropOp40
 70
     1
102
RTVSPost2010Prop41ColorIndex
 90
       18
102
RTVSPost2010Prop41ColorRGB
 90
        0
102
RTVSPost2010PropOp41
 70
     1
102
RTVSPost2010Prop42
 90
       50
102
RTVSPost2010PropOp42
 70
     1
102
RTVSPost2010Prop43
 90
        3
102
RTVSPost2010PropOp43
 70
     1
102
RTVSPost2010Prop44ColorIndex
 90
        5
102
RTVSPost2010Prop44ColorRGB
 90
      255
102
RTVSPost2010PropOp44
 70
     1
102
RTVSPost2010Prop45
280
     0
102
RTVSPost2010PropOp45
 70
     1
102
RTVSPost2010Prop46
 90
       50
102
RTVSPost2010PropOp46
 70
     1
102
RTVSPost2010Prop47
 90
       50
102
RTVSPost2010PropOp47
 70
     1
102
RTVSPost2010Prop48
 90
       50
102
RTVSPost2010PropOp48
 70
     1
102
RTVSPost2010Prop49
280
     0
102
RTVSPost2010PropOp49
 70
     1
102
RTVSPost2010Prop50
 90
       50
102
RTVSPost2010PropOp50
 70
     1
102
RTVSPost2010Prop51ColorIndex
 90
      256
102
RTVSPost2010Prop51ColorRGB
 90
-16777216
102
RTVSPost2010PropOp51
 70
     0
102
RTVSPost2010Prop52
140
1.0
102
RTVSPost2010PropOp52
 70
     0
102
RTVSPost2010Prop53
 90
        2
102
RTVSPost2010PropOp53
 70
     1
102
RTVSPost2010Prop54
  1
strokes_ogs.tif
102
RTVSPost2010PropOp54
 70
     1
102
RTVSPost2010Prop55
280
     0
102
RTVSPost2010PropOp55
 70
     1
102
RTVSPost2010Prop56
140
1.0
102
RTVSPost2010PropOp56
 70
     1
102
RTVSPost2010Prop57
140
1.0
102
RTVSPost2010PropOp57
 70
     1
  0
XRECORD
  5
21F
102
{ACAD_REACTORS
330
21E
102
}
330
21E
100
AcDbXrecord
280
     1
102
RTVSPost2010Prop28
280
     0
102
RTVSPost2010PropOp28
 70
     1
102
RTVSPost2010Prop29
280
     1
102
RTVSPost2010PropOp29
 70
     1
102
RTVSPost2010Prop30
280
     1
102
RTVSPost2010PropOp30
 70
     1
102
RTVSPost2010Prop31
280
     0
102
RTVSPost2010PropOp31
 70
     1
102
RTVSPost2010Prop32
280
     0
102
RTVSPost2010PropOp32
 70
     1
102
RTVSPost2010Prop33
280
     0
102
RTVSPost2010PropOp33
 70
     1
102
RTVSPost2010Prop34
280
     0
102
RTVSPost2010PropOp34
 70
     1
102
RTVSPost2010Prop35
280
     0
102
RTVSPost2010PropOp35
 70
     1
102
RTVSPost2010Prop36
280
     0
102
RTVSPost2010PropOp36
 70
     1
102
RTVSPost2010Prop37
 90
       50
102
RTVSPost2010PropOp37
 70
     1
102
RTVSPost2010Prop38
140
0.0
102
RTVSPost2010PropOp38
 70
     1
102
RTVSPost2010Prop39
140
1.0
102
RTVSPost2010PropOp39
 70
     1
102
RTVSPost2010Prop40
 90
        0
102
RTVSPost2010PropOp40
 70
     1
102
RTVSPost2010Prop41ColorIndex
 90
       18
102
RTVSPost2010Prop41ColorRGB
 90
        0
102
RTVSPost2010PropOp41
 70
     1
102
RTVSPost2010Prop42
 90
       50
102
RTVSPost2010PropOp42
 70
     1
102
RTVSPost2010Prop43
 90
        3
102
RTVSPost2010PropOp43
 70
     1
102
RTVSPost2010Prop44ColorIndex
 90
        5
102
RTVSPost2010Prop44ColorRGB
 90
      255
102
RTVSPost2010PropOp44
 70
     1
102
RTVSPost2010Prop45
280
     0
102
RTVSPost2010PropOp45
 70
     1
102
RTVSPost2010Prop46
 90
       50
102
RTVSPost2010PropOp46
 70
     1
102
RTVSPost2010Prop47
 90
       50
102
RTVSPost2010PropOp47
 70
     1
102
RTVSPost2010Prop48
 90
       50
102
RTVSPost2010PropOp48
 70
     1
102
RTVSPost2010Prop49
280
     0
102
RTVSPost2010PropOp49
 70
     1
102
RTVSPost2010Prop50
 90
       50
102
RTVSPost2010PropOp50
 70
     1
102
RTVSPost2010Prop51ColorIndex
 90
      256
102
RTVSPost2010Prop51ColorRGB
 90
-16777216
102
RTVSPost2010PropOp51
 70
     0
102
RTVSPost2010Prop52
140
1.0
102
RTVSPost2010PropOp52
 70
     0
102
RTVSPost2010Prop53
 90
        2
102
RTVSPost2010PropOp53
 70
     1
102
RTVSPost2010Prop54
  1
strokes_ogs.tif
102
RTVSPost2010PropOp54
 70
     1
102
RTVSPost2010Prop55
280
     0
102
RTVSPost2010PropOp55
 70
     1
102
RTVSPost2010Prop56
140
1.0
102
RTVSPost2010PropOp56
 70
     1
102
RTVSPost2010Prop57
140
1.0
102
RTVSPost2010PropOp57
 70
     1
  0
XRECORD
  5
221
102
{ACAD_REACTORS
330
220
102
}
330
220
100
AcDbXrecord
280
     1
102
RTVSPost2010Prop28
280
     0
102
RTVSPost2010PropOp28
 70
     1
102
RTVSPost2010Prop29
280
     1
102
RTVSPost2010PropOp29
 70
     1
102
RTVSPost2010Prop30
280
     1
102
RTVSPost2010PropOp30
 70
     1
102
RTVSPost2010Prop31
280
     0
102
RTVSPost2010PropOp31
 70
     1
102
RTVSPost2010Prop32
280
     0
102
RTVSPost2010PropOp32
 70
     1
102
RTVSPost2010Prop33
280
     0
102
RTVSPost2010PropOp33
 70
     1
102
RTVSPost2010Prop34
280
     0
102
RTVSPost2010PropOp34
 70
     1
102
RTVSPost2010Prop35
280
     0
102
RTVSPost2010PropOp35
 70
     1
102
RTVSPost2010Prop36
280
     0
102
RTVSPost2010PropOp36
 70
     1
102
RTVSPost2010Prop37
 90
       50
102
RTVSPost2010PropOp37
 70
     1
102
RTVSPost2010Prop38
140
0.0
102
RTVSPost2010PropOp38
 70
     1
102
RTVSPost2010Prop39
140
1.0
102
RTVSPost2010PropOp39
 70
     1
102
RTVSPost2010Prop40
 90
        0
102
RTVSPost2010PropOp40
 70
     1
102
RTVSPost2010Prop41ColorIndex
 90
       18
102
RTVSPost2010Prop41ColorRGB
 90
        0
102
RTVSPost2010PropOp41
 70
     1
102
RTVSPost2010Prop42
 90
       50
102
RTVSPost2010PropOp42
 70
     1
102
RTVSPost2010Prop43
 90
        3
102
RTVSPost2010PropOp43
 70
     1
102
RTVSPost2010Prop44ColorIndex
 90
        5
102
RTVSPost2010Prop44ColorRGB
 90
      255
102
RTVSPost2010PropOp44
 70
     1
102
RTVSPost2010Prop45
280
     0
102
RTVSPost2010PropOp45
 70
     1
102
RTVSPost2010Prop46
 90
       50
102
RTVSPost2010PropOp46
 70
     1
102
RTVSPost2010Prop47
 90
       50
102
RTVSPost2010PropOp47
 70
     1
102
RTVSPost2010Prop48
 90
       50
102
RTVSPost2010PropOp48
 70
     1
102
RTVSPost2010Prop49
280
     0
102
RTVSPost2010PropOp49
 70
     1
102
RTVSPost2010Prop50
 90
       50
102
RTVSPost2010PropOp50
 70
     1
102
RTVSPost2010Prop51ColorIndex
 90
      256
102
RTVSPost2010Prop51ColorRGB
 90
-16777216
102
RTVSPost2010PropOp51
 70
     0
102
RTVSPost2010Prop52
140
1.0
102
RTVSPost2010PropOp52
 70
     0
102
RTVSPost2010Prop53
 90
        2
102
RTVSPost2010PropOp53
 70
     1
102
RTVSPost2010Prop54
  1
strokes_ogs.tif
102
RTVSPost2010PropOp54
 70
     1
102
RTVSPost2010Prop55
280
     0
102
RTVSPost2010PropOp55
 70
     1
102
RTVSPost2010Prop56
140
1.0
102
RTVSPost2010PropOp56
 70
     1
102
RTVSPost2010Prop57
140
1.0
102
RTVSPost2010PropOp57
 70
     1
  0
XRECORD
  5
223
102
{ACAD_REACTORS
330
222
102
}
330
222
100
AcDbXrecord
280
     1
102
RTVSPost2010Prop28
280
     0
102
RTVSPost2010PropOp28
 70
     1
102
RTVSPost2010Prop29
280
     1
102
RTVSPost2010PropOp29
 70
     1
102
RTVSPost2010Prop30
280
     1
102
RTVSPost2010PropOp30
 70
     1
102
RTVSPost2010Prop31
280
     0
102
RTVSPost2010PropOp31
 70
     1
102
RTVSPost2010Prop32
280
     0
102
RTVSPost2010PropOp32
 70
     1
102
RTVSPost2010Prop33
280
     0
102
RTVSPost2010PropOp33
 70
     1
102
RTVSPost2010Prop34
280
     0
102
RTVSPost2010PropOp34
 70
     1
102
RTVSPost2010Prop35
280
     0
102
RTVSPost2010PropOp35
 70
     1
102
RTVSPost2010Prop36
280
     0
102
RTVSPost2010PropOp36
 70
     1
102
RTVSPost2010Prop37
 90
       50
102
RTVSPost2010PropOp37
 70
     1
102
RTVSPost2010Prop38
140
0.0
102
RTVSPost2010PropOp38
 70
     1
102
RTVSPost2010Prop39
140
1.0
102
RTVSPost2010PropOp39
 70
     1
102
RTVSPost2010Prop40
 90
        0
102
RTVSPost2010PropOp40
 70
     1
102
RTVSPost2010Prop41ColorIndex
 90
       18
102
RTVSPost2010Prop41ColorRGB
 90
        0
102
RTVSPost2010PropOp41
 70
     1
102
RTVSPost2010Prop42
 90
       50
102
RTVSPost2010PropOp42
 70
     1
102
RTVSPost2010Prop43
 90
        3
102
RTVSPost2010PropOp43
 70
     1
102
RTVSPost2010Prop44ColorIndex
 90
        5
102
RTVSPost2010Prop44ColorRGB
 90
      255
102
RTVSPost2010PropOp44
 70
     1
102
RTVSPost2010Prop45
280
     0
102
RTVSPost2010PropOp45
 70
     1
102
RTVSPost2010Prop46
 90
       50
102
RTVSPost2010PropOp46
 70
     1
102
RTVSPost2010Prop47
 90
       50
102
RTVSPost2010PropOp47
 70
     1
102
RTVSPost2010Prop48
 90
       50
102
RTVSPost2010PropOp48
 70
     1
102
RTVSPost2010Prop49
280
     0
102
RTVSPost2010PropOp49
 70
     1
102
RTVSPost2010Prop50
 90
       50
102
RTVSPost2010PropOp50
 70
     1
102
RTVSPost2010Prop51ColorIndex
 90
      256
102
RTVSPost2010Prop51ColorRGB
 90
-16777216
102
RTVSPost2010PropOp51
 70
     0
102
RTVSPost2010Prop52
140
1.0
102
RTVSPost2010PropOp52
 70
     0
102
RTVSPost2010Prop53
 90
        2
102
RTVSPost2010PropOp53
 70
     1
102
RTVSPost2010Prop54
  1
strokes_ogs.tif
102
RTVSPost2010PropOp54
 70
     1
102
RTVSPost2010Prop55
280
     0
102
RTVSPost2010PropOp55
 70
     1
102
RTVSPost2010Prop56
140
1.0
102
RTVSPost2010PropOp56
 70
     1
102
RTVSPost2010Prop57
140
1.0
102
RTVSPost2010PropOp57
 70
     1
  0
XRECORD
  5
229
102
{ACAD_REACTORS
330
228
102
}
330
228
100
AcDbXrecord
280
     1
102
RTVSPost2010Prop28
280
     0
102
RTVSPost2010PropOp28
 70
     1
102
RTVSPost2010Prop29
280
     1
102
RTVSPost2010PropOp29
 70
     1
102
RTVSPost2010Prop30
280
     1
102
RTVSPost2010PropOp30
 70
     1
102
RTVSPost2010Prop31
280
     0
102
RTVSPost2010PropOp31
 70
     1
102
RTVSPost2010Prop32
280
     0
102
RTVSPost2010PropOp32
 70
     1
102
RTVSPost2010Prop33
280
     0
102
RTVSPost2010PropOp33
 70
     1
102
RTVSPost2010Prop34
280
     0
102
RTVSPost2010PropOp34
 70
     1
102
RTVSPost2010Prop35
280
     0
102
RTVSPost2010PropOp35
 70
     1
102
RTVSPost2010Prop36
280
     0
102
RTVSPost2010PropOp36
 70
     1
102
RTVSPost2010Prop37
 90
       50
102
RTVSPost2010PropOp37
 70
     1
102
RTVSPost2010Prop38
140
0.0
102
RTVSPost2010PropOp38
 70
     1
102
RTVSPost2010Prop39
140
1.0
102
RTVSPost2010PropOp39
 70
     1
102
RTVSPost2010Prop40
 90
        0
102
RTVSPost2010PropOp40
 70
     1
102
RTVSPost2010Prop41ColorIndex
 90
       18
102
RTVSPost2010Prop41ColorRGB
 90
        0
102
RTVSPost2010PropOp41
 70
     1
102
RTVSPost2010Prop42
 90
       50
102
RTVSPost2010PropOp42
 70
     1
102
RTVSPost2010Prop43
 90
        3
102
RTVSPost2010PropOp43
 70
     1
102
RTVSPost2010Prop44ColorIndex
 90
        5
102
RTVSPost2010Prop44ColorRGB
 90
      255
102
RTVSPost2010PropOp44
 70
     1
102
RTVSPost2010Prop45
280
     0
102
RTVSPost2010PropOp45
 70
     1
102
RTVSPost2010Prop46
 90
       50
102
RTVSPost2010PropOp46
 70
     1
102
RTVSPost2010Prop47
 90
       50
102
RTVSPost2010PropOp47
 70
     1
102
RTVSPost2010Prop48
 90
       50
102
RTVSPost2010PropOp48
 70
     1
102
RTVSPost2010Prop49
280
     0
102
RTVSPost2010PropOp49
 70
     1
102
RTVSPost2010Prop50
 90
       50
102
RTVSPost2010PropOp50
 70
     1
102
RTVSPost2010Prop51ColorIndex
 90
      256
102
RTVSPost2010Prop51ColorRGB
 90
-16777216
102
RTVSPost2010PropOp51
 70
     0
102
RTVSPost2010Prop52
140
1.0
102
RTVSPost2010PropOp52
 70
     0
102
RTVSPost2010Prop53
 90
        2
102
RTVSPost2010PropOp53
 70
     1
102
RTVSPost2010Prop54
  1
strokes_ogs.tif
102
RTVSPost2010PropOp54
 70
     1
102
RTVSPost2010Prop55
280
     0
102
RTVSPost2010PropOp55
 70
     1
102
RTVSPost2010Prop56
140
1.0
102
RTVSPost2010PropOp56
 70
     1
102
RTVSPost2010Prop57
140
1.0
102
RTVSPost2010PropOp57
 70
     1
  0
XRECORD
  5
23D
102
{ACAD_REACTORS
330
23C
102
}
330
23C
100
AcDbXrecord
280
     1
102
RTVSPost2010Prop28
280
     0
102
RTVSPost2010PropOp28
 70
     0
102
RTVSPost2010Prop29
280
     1
102
RTVSPost2010PropOp29
 70
     0
102
RTVSPost2010Prop30
280
     1
102
RTVSPost2010PropOp30
 70
     0
102
RTVSPost2010Prop31
280
     0
102
RTVSPost2010PropOp31
 70
     0
102
RTVSPost2010Prop32
280
     0
102
RTVSPost2010PropOp32
 70
     0
102
RTVSPost2010Prop33
280
     0
102
RTVSPost2010PropOp33
 70
     0
102
RTVSPost2010Prop34
280
     0
102
RTVSPost2010PropOp34
 70
     0
102
RTVSPost2010Prop35
280
     0
102
RTVSPost2010PropOp35
 70
     0
102
RTVSPost2010Prop36
280
     0
102
RTVSPost2010PropOp36
 70
     0
102
RTVSPost2010Prop37
 90
       50
102
RTVSPost2010PropOp37
 70
     0
102
RTVSPost2010Prop38
140
0.0
102
RTVSPost2010PropOp38
 70
     0
102
RTVSPost2010Prop39
140
1.0
102
RTVSPost2010PropOp39
 70
     0
102
RTVSPost2010Prop40
 90
        0
102
RTVSPost2010PropOp40
 70
     0
102
RTVSPost2010Prop41ColorIndex
 90
       18
102
RTVSPost2010Prop41ColorRGB
 90
        0
102
RTVSPost2010PropOp41
 70
     0
102
RTVSPost2010Prop42
 90
       50
102
RTVSPost2010PropOp42
 70
     0
102
RTVSPost2010Prop43
 90
        3
102
RTVSPost2010PropOp43
 70
     0
102
RTVSPost2010Prop44ColorIndex
 90
        5
102
RTVSPost2010Prop44ColorRGB
 90
      255
102
RTVSPost2010PropOp44
 70
     0
102
RTVSPost2010Prop45
280
     0
102
RTVSPost2010PropOp45
 70
     0
102
RTVSPost2010Prop46
 90
       50
102
RTVSPost2010PropOp46
 70
     0
102
RTVSPost2010Prop47
 90
       50
102
RTVSPost2010PropOp47
 70
     0
102
RTVSPost2010Prop48
 90
       50
102
RTVSPost2010PropOp48
 70
     0
102
RTVSPost2010Prop49
280
     0
102
RTVSPost2010PropOp49
 70
     0
102
RTVSPost2010Prop50
 90
       50
102
RTVSPost2010PropOp50
 70
     0
102
RTVSPost2010Prop51ColorIndex
 90
      256
102
RTVSPost2010Prop51ColorRGB
 90
-16777216
102
RTVSPost2010PropOp51
 70
     0
102
RTVSPost2010Prop52
140
1.0
102
RTVSPost2010PropOp52
 70
     0
102
RTVSPost2010Prop53
 90
        2
102
RTVSPost2010PropOp53
 70
     0
102
RTVSPost2010Prop54
  1
strokes_ogs.tif
102
RTVSPost2010PropOp54
 70
     0
102
RTVSPost2010Prop55
280
     0
102
RTVSPost2010PropOp55
 70
     0
102
RTVSPost2010Prop56
140
1.0
102
RTVSPost2010PropOp56
 70
     0
102
RTVSPost2010Prop57
140
1.0
102
RTVSPost2010PropOp57
 70
     0
  0
XRECORD
  5
237
102
{ACAD_REACTORS
330
236
102
}
330
236
100
AcDbXrecord
280
     1
102
RTVSPost2010Prop28
280
     0
102
RTVSPost2010PropOp28
 70
     1
102
RTVSPost2010Prop29
280
     1
102
RTVSPost2010PropOp29
 70
     1
102
RTVSPost2010Prop30
280
     1
102
RTVSPost2010PropOp30
 70
     1
102
RTVSPost2010Prop31
280
     0
102
RTVSPost2010PropOp31
 70
     1
102
RTVSPost2010Prop32
280
     0
102
RTVSPost2010PropOp32
 70
     1
102
RTVSPost2010Prop33
280
     0
102
RTVSPost2010PropOp33
 70
     1
102
RTVSPost2010Prop34
280
     0
102
RTVSPost2010PropOp34
 70
     1
102
RTVSPost2010Prop35
280
     0
102
RTVSPost2010PropOp35
 70
     1
102
RTVSPost2010Prop36
280
     0
102
RTVSPost2010PropOp36
 70
     1
102
RTVSPost2010Prop37
 90
       50
102
RTVSPost2010PropOp37
 70
     1
102
RTVSPost2010Prop38
140
0.0
102
RTVSPost2010PropOp38
 70
     1
102
RTVSPost2010Prop39
140
1.0
102
RTVSPost2010PropOp39
 70
     1
102
RTVSPost2010Prop40
 90
        0
102
RTVSPost2010PropOp40
 70
     1
102
RTVSPost2010Prop41ColorIndex
 90
       18
102
RTVSPost2010Prop41ColorRGB
 90
        0
102
RTVSPost2010PropOp41
 70
     1
102
RTVSPost2010Prop42
 90
       50
102
RTVSPost2010PropOp42
 70
     1
102
RTVSPost2010Prop43
 90
        3
102
RTVSPost2010PropOp43
 70
     1
102
RTVSPost2010Prop44ColorIndex
 90
        5
102
RTVSPost2010Prop44ColorRGB
 90
      255
102
RTVSPost2010PropOp44
 70
     1
102
RTVSPost2010Prop45
280
     0
102
RTVSPost2010PropOp45
 70
     1
102
RTVSPost2010Prop46
 90
       50
102
RTVSPost2010PropOp46
 70
     1
102
RTVSPost2010Prop47
 90
       50
102
RTVSPost2010PropOp47
 70
     1
102
RTVSPost2010Prop48
 90
       50
102
RTVSPost2010PropOp48
 70
     1
102
RTVSPost2010Prop49
280
     0
102
RTVSPost2010PropOp49
 70
     1
102
RTVSPost2010Prop50
 90
       50
102
RTVSPost2010PropOp50
 70
     1
102
RTVSPost2010Prop51ColorIndex
 90
      256
102
RTVSPost2010Prop51ColorRGB
 90
-16777216
102
RTVSPost2010PropOp51
 70
     0
102
RTVSPost2010Prop52
140
1.0
102
RTVSPost2010PropOp52
 70
     0
102
RTVSPost2010Prop53
 90
        2
102
RTVSPost2010PropOp53
 70
     1
102
RTVSPost2010Prop54
  1
strokes_ogs.tif
102
RTVSPost2010PropOp54
 70
     1
102
RTVSPost2010Prop55
280
     0
102
RTVSPost2010PropOp55
 70
     1
102
RTVSPost2010Prop56
140
1.0
102
RTVSPost2010PropOp56
 70
     1
102
RTVSPost2010Prop57
140
1.0
102
RTVSPost2010PropOp57
 70
     1
  0
XRECORD
  5
23F
102
{ACAD_REACTORS
330
23E
102
}
330
23E
100
AcDbXrecord
280
     1
102
RTVSPost2010Prop28
280
     0
102
RTVSPost2010PropOp28
 70
     0
102
RTVSPost2010Prop29
280
     1
102
RTVSPost2010PropOp29
 70
     0
102
RTVSPost2010Prop30
280
     1
102
RTVSPost2010PropOp30
 70
     0
102
RTVSPost2010Prop31
280
     0
102
RTVSPost2010PropOp31
 70
     0
102
RTVSPost2010Prop32
280
     0
102
RTVSPost2010PropOp32
 70
     0
102
RTVSPost2010Prop33
280
     0
102
RTVSPost2010PropOp33
 70
     0
102
RTVSPost2010Prop34
280
     0
102
RTVSPost2010PropOp34
 70
     0
102
RTVSPost2010Prop35
280
     0
102
RTVSPost2010PropOp35
 70
     0
102
RTVSPost2010Prop36
280
     0
102
RTVSPost2010PropOp36
 70
     0
102
RTVSPost2010Prop37
 90
       50
102
RTVSPost2010PropOp37
 70
     0
102
RTVSPost2010Prop38
140
0.0
102
RTVSPost2010PropOp38
 70
     0
102
RTVSPost2010Prop39
140
1.0
102
RTVSPost2010PropOp39
 70
     0
102
RTVSPost2010Prop40
 90
        0
102
RTVSPost2010PropOp40
 70
     0
102
RTVSPost2010Prop41ColorIndex
 90
       18
102
RTVSPost2010Prop41ColorRGB
 90
        0
102
RTVSPost2010PropOp41
 70
     0
102
RTVSPost2010Prop42
 90
       50
102
RTVSPost2010PropOp42
 70
     0
102
RTVSPost2010Prop43
 90
        3
102
RTVSPost2010PropOp43
 70
     0
102
RTVSPost2010Prop44ColorIndex
 90
        5
102
RTVSPost2010Prop44ColorRGB
 90
      255
102
RTVSPost2010PropOp44
 70
     0
102
RTVSPost2010Prop45
280
     0
102
RTVSPost2010PropOp45
 70
     0
102
RTVSPost2010Prop46
 90
       50
102
RTVSPost2010PropOp46
 70
     0
102
RTVSPost2010Prop47
 90
       50
102
RTVSPost2010PropOp47
 70
     0
102
RTVSPost2010Prop48
 90
       50
102
RTVSPost2010PropOp48
 70
     0
102
RTVSPost2010Prop49
280
     0
102
RTVSPost2010PropOp49
 70
     0
102
RTVSPost2010Prop50
 90
       50
102
RTVSPost2010PropOp50
 70
     0
102
RTVSPost2010Prop51ColorIndex
 90
      256
102
RTVSPost2010Prop51ColorRGB
 90
-16777216
102
RTVSPost2010PropOp51
 70
     0
102
RTVSPost2010Prop52
140
1.0
102
RTVSPost2010PropOp52
 70
     0
102
RTVSPost2010Prop53
 90
        2
102
RTVSPost2010PropOp53
 70
     0
102
RTVSPost2010Prop54
  1
strokes_ogs.tif
102
RTVSPost2010PropOp54
 70
     0
102
RTVSPost2010Prop55
280
     0
102
RTVSPost2010PropOp55
 70
     0
102
RTVSPost2010Prop56
140
1.0
102
RTVSPost2010PropOp56
 70
     0
102
RTVSPost2010Prop57
140
1.0
102
RTVSPost2010PropOp57
 70
     0
  0
XRECORD
  5
22D
102
{ACAD_REACTORS
330
22C
102
}
330
22C
100
AcDbXrecord
280
     1
102
RTVSPost2010Prop28
280
     0
102
RTVSPost2010PropOp28
 70
     1
102
RTVSPost2010Prop29
280
     1
102
RTVSPost2010PropOp29
 70
     1
102
RTVSPost2010Prop30
280
     1
102
RTVSPost2010PropOp30
 70
     1
102
RTVSPost2010Prop31
280
     0
102
RTVSPost2010PropOp31
 70
     1
102
RTVSPost2010Prop32
280
     0
102
RTVSPost2010PropOp32
 70
     1
102
RTVSPost2010Prop33
280
     0
102
RTVSPost2010PropOp33
 70
     1
102
RTVSPost2010Prop34
280
     0
102
RTVSPost2010PropOp34
 70
     1
102
RTVSPost2010Prop35
280
     0
102
RTVSPost2010PropOp35
 70
     1
102
RTVSPost2010Prop36
280
     0
102
RTVSPost2010PropOp36
 70
     1
102
RTVSPost2010Prop37
 90
       50
102
RTVSPost2010PropOp37
 70
     1
102
RTVSPost2010Prop38
140
0.0
102
RTVSPost2010PropOp38
 70
     1
102
RTVSPost2010Prop39
140
1.0
102
RTVSPost2010PropOp39
 70
     1
102
RTVSPost2010Prop40
 90
        0
102
RTVSPost2010PropOp40
 70
     1
102
RTVSPost2010Prop41ColorIndex
 90
       18
102
RTVSPost2010Prop41ColorRGB
 90
        0
102
RTVSPost2010PropOp41
 70
     1
102
RTVSPost2010Prop42
 90
       50
102
RTVSPost2010PropOp42
 70
     1
102
RTVSPost2010Prop43
 90
        3
102
RTVSPost2010PropOp43
 70
     1
102
RTVSPost2010Prop44ColorIndex
 90
        5
102
RTVSPost2010Prop44ColorRGB
 90
      255
102
RTVSPost2010PropOp44
 70
     1
102
RTVSPost2010Prop45
280
     0
102
RTVSPost2010PropOp45
 70
     1
102
RTVSPost2010Prop46
 90
       50
102
RTVSPost2010PropOp46
 70
     1
102
RTVSPost2010Prop47
 90
       50
102
RTVSPost2010PropOp47
 70
     1
102
RTVSPost2010Prop48
 90
       50
102
RTVSPost2010PropOp48
 70
     1
102
RTVSPost2010Prop49
280
     0
102
RTVSPost2010PropOp49
 70
     1
102
RTVSPost2010Prop50
 90
       50
102
RTVSPost2010PropOp50
 70
     1
102
RTVSPost2010Prop51ColorIndex
 90
      256
102
RTVSPost2010Prop51ColorRGB
 90
-16777216
102
RTVSPost2010PropOp51
 70
     0
102
RTVSPost2010Prop52
140
1.0
102
RTVSPost2010PropOp52
 70
     0
102
RTVSPost2010Prop53
 90
        2
102
RTVSPost2010PropOp53
 70
     1
102
RTVSPost2010Prop54
  1
strokes_ogs.tif
102
RTVSPost2010PropOp54
 70
     1
102
RTVSPost2010Prop55
280
     0
102
RTVSPost2010PropOp55
 70
     1
102
RTVSPost2010Prop56
140
1.0
102
RTVSPost2010PropOp56
 70
     1
102
RTVSPost2010Prop57
140
1.0
102
RTVSPost2010PropOp57
 70
     1
  0
XRECORD
  5
24B
102
{ACAD_REACTORS
330
24A
102
}
330
24A
100
AcDbXrecord
280
     1
102
RTVSPost2010Prop28
280
     0
102
RTVSPost2010PropOp28
 70
     1
102
RTVSPost2010Prop29
280
     1
102
RTVSPost2010PropOp29
 70
     1
102
RTVSPost2010Prop30
280
     1
102
RTVSPost2010PropOp30
 70
     1
102
RTVSPost2010Prop31
280
     0
102
RTVSPost2010PropOp31
 70
     1
102
RTVSPost2010Prop32
280
     0
102
RTVSPost2010PropOp32
 70
     1
102
RTVSPost2010Prop33
280
     0
102
RTVSPost2010PropOp33
 70
     1
102
RTVSPost2010Prop34
280
     0
102
RTVSPost2010PropOp34
 70
     1
102
RTVSPost2010Prop35
280
     0
102
RTVSPost2010PropOp35
 70
     1
102
RTVSPost2010Prop36
280
     0
102
RTVSPost2010PropOp36
 70
     1
102
RTVSPost2010Prop37
 90
       50
102
RTVSPost2010PropOp37
 70
     1
102
RTVSPost2010Prop38
140
0.0
102
RTVSPost2010PropOp38
 70
     1
102
RTVSPost2010Prop39
140
1.0
102
RTVSPost2010PropOp39
 70
     1
102
RTVSPost2010Prop40
 90
        0
102
RTVSPost2010PropOp40
 70
     1
102
RTVSPost2010Prop41ColorIndex
 90
       18
102
RTVSPost2010Prop41ColorRGB
 90
        0
102
RTVSPost2010PropOp41
 70
     1
102
RTVSPost2010Prop42
 90
       50
102
RTVSPost2010PropOp42
 70
     1
102
RTVSPost2010Prop43
 90
        3
102
RTVSPost2010PropOp43
 70
     1
102
RTVSPost2010Prop44ColorIndex
 90
        5
102
RTVSPost2010Prop44ColorRGB
 90
      255
102
RTVSPost2010PropOp44
 70
     1
102
RTVSPost2010Prop45
280
     0
102
RTVSPost2010PropOp45
 70
     1
102
RTVSPost2010Prop46
 90
       50
102
RTVSPost2010PropOp46
 70
     1
102
RTVSPost2010Prop47
 90
       50
102
RTVSPost2010PropOp47
 70
     1
102
RTVSPost2010Prop48
 90
       50
102
RTVSPost2010PropOp48
 70
     1
102
RTVSPost2010Prop49
280
     0
102
RTVSPost2010PropOp49
 70
     1
102
RTVSPost2010Prop50
 90
       50
102
RTVSPost2010PropOp50
 70
     1
102
RTVSPost2010Prop51ColorIndex
 90
      256
102
RTVSPost2010Prop51ColorRGB
 90
-16777216
102
RTVSPost2010PropOp51
 70
     0
102
RTVSPost2010Prop52
140
1.0
102
RTVSPost2010PropOp52
 70
     0
102
RTVSPost2010Prop53
 90
        2
102
RTVSPost2010PropOp53
 70
     1
102
RTVSPost2010Prop54
  1
strokes_ogs.tif
102
RTVSPost2010PropOp54
 70
     1
102
RTVSPost2010Prop55
280
     0
102
RTVSPost2010PropOp55
 70
     1
102
RTVSPost2010Prop56
140
1.0
102
RTVSPost2010PropOp56
 70
     1
102
RTVSPost2010Prop57
140
1.0
102
RTVSPost2010PropOp57
 70
     1
  0
XRECORD
  5
249
102
{ACAD_REACTORS
330
248
102
}
330
248
100
AcDbXrecord
280
     1
102
RTVSPost2010Prop28
280
     0
102
RTVSPost2010PropOp28
 70
     1
102
RTVSPost2010Prop29
280
     1
102
RTVSPost2010PropOp29
 70
     1
102
RTVSPost2010Prop30
280
     1
102
RTVSPost2010PropOp30
 70
     1
102
RTVSPost2010Prop31
280
     0
102
RTVSPost2010PropOp31
 70
     1
102
RTVSPost2010Prop32
280
     0
102
RTVSPost2010PropOp32
 70
     1
102
RTVSPost2010Prop33
280
     0
102
RTVSPost2010PropOp33
 70
     1
102
RTVSPost2010Prop34
280
     0
102
RTVSPost2010PropOp34
 70
     1
102
RTVSPost2010Prop35
280
     0
102
RTVSPost2010PropOp35
 70
     1
102
RTVSPost2010Prop36
280
     0
102
RTVSPost2010PropOp36
 70
     1
102
RTVSPost2010Prop37
 90
       50
102
RTVSPost2010PropOp37
 70
     1
102
RTVSPost2010Prop38
140
0.0
102
RTVSPost2010PropOp38
 70
     1
102
RTVSPost2010Prop39
140
1.0
102
RTVSPost2010PropOp39
 70
     1
102
RTVSPost2010Prop40
 90
        0
102
RTVSPost2010PropOp40
 70
     1
102
RTVSPost2010Prop41ColorIndex
 90
       18
102
RTVSPost2010Prop41ColorRGB
 90
        0
102
RTVSPost2010PropOp41
 70
     1
102
RTVSPost2010Prop42
 90
       50
102
RTVSPost2010PropOp42
 70
     1
102
RTVSPost2010Prop43
 90
        3
102
RTVSPost2010PropOp43
 70
     1
102
RTVSPost2010Prop44ColorIndex
 90
        5
102
RTVSPost2010Prop44ColorRGB
 90
      255
102
RTVSPost2010PropOp44
 70
     1
102
RTVSPost2010Prop45
280
     0
102
RTVSPost2010PropOp45
 70
     1
102
RTVSPost2010Prop46
 90
       50
102
RTVSPost2010PropOp46
 70
     1
102
RTVSPost2010Prop47
 90
       50
102
RTVSPost2010PropOp47
 70
     1
102
RTVSPost2010Prop48
 90
       50
102
RTVSPost2010PropOp48
 70
     1
102
RTVSPost2010Prop49
280
     0
102
RTVSPost2010PropOp49
 70
     1
102
RTVSPost2010Prop50
 90
       50
102
RTVSPost2010PropOp50
 70
     1
102
RTVSPost2010Prop51ColorIndex
 90
      256
102
RTVSPost2010Prop51ColorRGB
 90
-16777216
102
RTVSPost2010PropOp51
 70
     0
102
RTVSPost2010Prop52
140
1.0
102
RTVSPost2010PropOp52
 70
     0
102
RTVSPost2010Prop53
 90
        2
102
RTVSPost2010PropOp53
 70
     1
102
RTVSPost2010Prop54
  1
strokes_ogs.tif
102
RTVSPost2010PropOp54
 70
     1
102
RTVSPost2010Prop55
280
     0
102
RTVSPost2010PropOp55
 70
     1
102
RTVSPost2010Prop56
140
1.0
102
RTVSPost2010PropOp56
 70
     1
102
RTVSPost2010Prop57
140
1.0
102
RTVSPost2010PropOp57
 70
     1
  0
XRECORD
  5
243
102
{ACAD_REACTORS
330
242
102
}
330
242
100
AcDbXrecord
280
     1
102
RTVSPost2010Prop28
280
     0
102
RTVSPost2010PropOp28
 70
     1
102
RTVSPost2010Prop29
280
     1
102
RTVSPost2010PropOp29
 70
     1
102
RTVSPost2010Prop30
280
     1
102
RTVSPost2010PropOp30
 70
     1
102
RTVSPost2010Prop31
280
     0
102
RTVSPost2010PropOp31
 70
     1
102
RTVSPost2010Prop32
280
     0
102
RTVSPost2010PropOp32
 70
     1
102
RTVSPost2010Prop33
280
     0
102
RTVSPost2010PropOp33
 70
     1
102
RTVSPost2010Prop34
280
     0
102
RTVSPost2010PropOp34
 70
     1
102
RTVSPost2010Prop35
280
     0
102
RTVSPost2010PropOp35
 70
     1
102
RTVSPost2010Prop36
280
     0
102
RTVSPost2010PropOp36
 70
     1
102
RTVSPost2010Prop37
 90
       50
102
RTVSPost2010PropOp37
 70
     1
102
RTVSPost2010Prop38
140
0.0
102
RTVSPost2010PropOp38
 70
     1
102
RTVSPost2010Prop39
140
1.0
102
RTVSPost2010PropOp39
 70
     1
102
RTVSPost2010Prop40
 90
        0
102
RTVSPost2010PropOp40
 70
     1
102
RTVSPost2010Prop41ColorIndex
 90
       18
102
RTVSPost2010Prop41ColorRGB
 90
        0
102
RTVSPost2010PropOp41
 70
     1
102
RTVSPost2010Prop42
 90
       50
102
RTVSPost2010PropOp42
 70
     1
102
RTVSPost2010Prop43
 90
        3
102
RTVSPost2010PropOp43
 70
     1
102
RTVSPost2010Prop44ColorIndex
 90
        5
102
RTVSPost2010Prop44ColorRGB
 90
      255
102
RTVSPost2010PropOp44
 70
     1
102
RTVSPost2010Prop45
280
     0
102
RTVSPost2010PropOp45
 70
     1
102
RTVSPost2010Prop46
 90
       50
102
RTVSPost2010PropOp46
 70
     1
102
RTVSPost2010Prop47
 90
       50
102
RTVSPost2010PropOp47
 70
     1
102
RTVSPost2010Prop48
 90
       50
102
RTVSPost2010PropOp48
 70
     1
102
RTVSPost2010Prop49
280
     0
102
RTVSPost2010PropOp49
 70
     1
102
RTVSPost2010Prop50
 90
       50
102
RTVSPost2010PropOp50
 70
     1
102
RTVSPost2010Prop51ColorIndex
 90
      256
102
RTVSPost2010Prop51ColorRGB
 90
-16777216
102
RTVSPost2010PropOp51
 70
     0
102
RTVSPost2010Prop52
140
1.0
102
RTVSPost2010PropOp52
 70
     0
102
RTVSPost2010Prop53
 90
        2
102
RTVSPost2010PropOp53
 70
     1
102
RTVSPost2010Prop54
  1
strokes_ogs.tif
102
RTVSPost2010PropOp54
 70
     1
102
RTVSPost2010Prop55
280
     0
102
RTVSPost2010PropOp55
 70
     1
102
RTVSPost2010Prop56
140
1.0
102
RTVSPost2010PropOp56
 70
     1
102
RTVSPost2010Prop57
140
1.0
102
RTVSPost2010PropOp57
 70
     1
  0
XRECORD
  5
245
102
{ACAD_REACTORS
330
244
102
}
330
244
100
AcDbXrecord
280
     1
102
RTVSPost2010Prop28
280
     0
102
RTVSPost2010PropOp28
 70
     1
102
RTVSPost2010Prop29
280
     1
102
RTVSPost2010PropOp29
 70
     1
102
RTVSPost2010Prop30
280
     1
102
RTVSPost2010PropOp30
 70
     1
102
RTVSPost2010Prop31
280
     0
102
RTVSPost2010PropOp31
 70
     1
102
RTVSPost2010Prop32
280
     0
102
RTVSPost2010PropOp32
 70
     1
102
RTVSPost2010Prop33
280
     0
102
RTVSPost2010PropOp33
 70
     1
102
RTVSPost2010Prop34
280
     0
102
RTVSPost2010PropOp34
 70
     1
102
RTVSPost2010Prop35
280
     0
102
RTVSPost2010PropOp35
 70
     1
102
RTVSPost2010Prop36
280
     0
102
RTVSPost2010PropOp36
 70
     1
102
RTVSPost2010Prop37
 90
       50
102
RTVSPost2010PropOp37
 70
     1
102
RTVSPost2010Prop38
140
0.0
102
RTVSPost2010PropOp38
 70
     1
102
RTVSPost2010Prop39
140
1.0
102
RTVSPost2010PropOp39
 70
     1
102
RTVSPost2010Prop40
 90
        0
102
RTVSPost2010PropOp40
 70
     1
102
RTVSPost2010Prop41ColorIndex
 90
       18
102
RTVSPost2010Prop41ColorRGB
 90
        0
102
RTVSPost2010PropOp41
 70
     1
102
RTVSPost2010Prop42
 90
       50
102
RTVSPost2010PropOp42
 70
     1
102
RTVSPost2010Prop43
 90
        3
102
RTVSPost2010PropOp43
 70
     1
102
RTVSPost2010Prop44ColorIndex
 90
        5
102
RTVSPost2010Prop44ColorRGB
 90
      255
102
RTVSPost2010PropOp44
 70
     1
102
RTVSPost2010Prop45
280
     0
102
RTVSPost2010PropOp45
 70
     1
102
RTVSPost2010Prop46
 90
       50
102
RTVSPost2010PropOp46
 70
     1
102
RTVSPost2010Prop47
 90
       50
102
RTVSPost2010PropOp47
 70
     1
102
RTVSPost2010Prop48
 90
       50
102
RTVSPost2010PropOp48
 70
     1
102
RTVSPost2010Prop49
280
     0
102
RTVSPost2010PropOp49
 70
     1
102
RTVSPost2010Prop50
 90
       50
102
RTVSPost2010PropOp50
 70
     1
102
RTVSPost2010Prop51ColorIndex
 90
      256
102
RTVSPost2010Prop51ColorRGB
 90
-16777216
102
RTVSPost2010PropOp51
 70
     0
102
RTVSPost2010Prop52
140
1.0
102
RTVSPost2010PropOp52
 70
     0
102
RTVSPost2010Prop53
 90
        2
102
RTVSPost2010PropOp53
 70
     1
102
RTVSPost2010Prop54
  1
strokes_ogs.tif
102
RTVSPost2010PropOp54
 70
     1
102
RTVSPost2010Prop55
280
     0
102
RTVSPost2010PropOp55
 70
     1
102
RTVSPost2010Prop56
140
1.0
102
RTVSPost2010PropOp56
 70
     1
102
RTVSPost2010Prop57
140
1.0
102
RTVSPost2010PropOp57
 70
     1
  0
XRECORD
  5
235
102
{ACAD_REACTORS
330
234
102
}
330
234
100
AcDbXrecord
280
     1
102
RTVSPost2010Prop28
280
     0
102
RTVSPost2010PropOp28
 70
     1
102
RTVSPost2010Prop29
280
     1
102
RTVSPost2010PropOp29
 70
     1
102
RTVSPost2010Prop30
280
     1
102
RTVSPost2010PropOp30
 70
     1
102
RTVSPost2010Prop31
280
     0
102
RTVSPost2010PropOp31
 70
     1
102
RTVSPost2010Prop32
280
     0
102
RTVSPost2010PropOp32
 70
     1
102
RTVSPost2010Prop33
280
     0
102
RTVSPost2010PropOp33
 70
     1
102
RTVSPost2010Prop34
280
     0
102
RTVSPost2010PropOp34
 70
     1
102
RTVSPost2010Prop35
280
     0
102
RTVSPost2010PropOp35
 70
     1
102
RTVSPost2010Prop36
280
     0
102
RTVSPost2010PropOp36
 70
     1
102
RTVSPost2010Prop37
 90
       50
102
RTVSPost2010PropOp37
 70
     1
102
RTVSPost2010Prop38
140
0.0
102
RTVSPost2010PropOp38
 70
     1
102
RTVSPost2010Prop39
140
1.0
102
RTVSPost2010PropOp39
 70
     1
102
RTVSPost2010Prop40
 90
        0
102
RTVSPost2010PropOp40
 70
     1
102
RTVSPost2010Prop41ColorIndex
 90
       18
102
RTVSPost2010Prop41ColorRGB
 90
        0
102
RTVSPost2010PropOp41
 70
     1
102
RTVSPost2010Prop42
 90
       50
102
RTVSPost2010PropOp42
 70
     1
102
RTVSPost2010Prop43
 90
        3
102
RTVSPost2010PropOp43
 70
     1
102
RTVSPost2010Prop44ColorIndex
 90
        5
102
RTVSPost2010Prop44ColorRGB
 90
      255
102
RTVSPost2010PropOp44
 70
     1
102
RTVSPost2010Prop45
280
     0
102
RTVSPost2010PropOp45
 70
     1
102
RTVSPost2010Prop46
 90
       50
102
RTVSPost2010PropOp46
 70
     1
102
RTVSPost2010Prop47
 90
       50
102
RTVSPost2010PropOp47
 70
     1
102
RTVSPost2010Prop48
 90
       50
102
RTVSPost2010PropOp48
 70
     1
102
RTVSPost2010Prop49
280
     0
102
RTVSPost2010PropOp49
 70
     1
102
RTVSPost2010Prop50
 90
       50
102
RTVSPost2010PropOp50
 70
     1
102
RTVSPost2010Prop51ColorIndex
 90
      256
102
RTVSPost2010Prop51ColorRGB
 90
-16777216
102
RTVSPost2010PropOp51
 70
     0
102
RTVSPost2010Prop52
140
1.0
102
RTVSPost2010PropOp52
 70
     0
102
RTVSPost2010Prop53
 90
        2
102
RTVSPost2010PropOp53
 70
     1
102
RTVSPost2010Prop54
  1
strokes_ogs.tif
102
RTVSPost2010PropOp54
 70
     1
102
RTVSPost2010Prop55
280
     0
102
RTVSPost2010PropOp55
 70
     1
102
RTVSPost2010Prop56
140
1.0
102
RTVSPost2010PropOp56
 70
     1
102
RTVSPost2010Prop57
140
1.0
102
RTVSPost2010PropOp57
 70
     1
  0
XRECORD
  5
227
102
{ACAD_REACTORS
330
226
102
}
330
226
100
AcDbXrecord
280
     1
102
RTVSPost2010Prop28
280
     0
102
RTVSPost2010PropOp28
 70
     1
102
RTVSPost2010Prop29
280
     1
102
RTVSPost2010PropOp29
 70
     1
102
RTVSPost2010Prop30
280
     1
102
RTVSPost2010PropOp30
 70
     1
102
RTVSPost2010Prop31
280
     0
102
RTVSPost2010PropOp31
 70
     1
102
RTVSPost2010Prop32
280
     0
102
RTVSPost2010PropOp32
 70
     1
102
RTVSPost2010Prop33
280
     0
102
RTVSPost2010PropOp33
 70
     1
102
RTVSPost2010Prop34
280
     0
102
RTVSPost2010PropOp34
 70
     1
102
RTVSPost2010Prop35
280
     0
102
RTVSPost2010PropOp35
 70
     1
102
RTVSPost2010Prop36
280
     0
102
RTVSPost2010PropOp36
 70
     1
102
RTVSPost2010Prop37
 90
       50
102
RTVSPost2010PropOp37
 70
     1
102
RTVSPost2010Prop38
140
0.0
102
RTVSPost2010PropOp38
 70
     1
102
RTVSPost2010Prop39
140
1.0
102
RTVSPost2010PropOp39
 70
     1
102
RTVSPost2010Prop40
 90
        0
102
RTVSPost2010PropOp40
 70
     1
102
RTVSPost2010Prop41ColorIndex
 90
       18
102
RTVSPost2010Prop41ColorRGB
 90
        0
102
RTVSPost2010PropOp41
 70
     1
102
RTVSPost2010Prop42
 90
       50
102
RTVSPost2010PropOp42
 70
     1
102
RTVSPost2010Prop43
 90
        3
102
RTVSPost2010PropOp43
 70
     1
102
RTVSPost2010Prop44ColorIndex
 90
        5
102
RTVSPost2010Prop44ColorRGB
 90
      255
102
RTVSPost2010PropOp44
 70
     1
102
RTVSPost2010Prop45
280
     0
102
RTVSPost2010PropOp45
 70
     1
102
RTVSPost2010Prop46
 90
       50
102
RTVSPost2010PropOp46
 70
     1
102
RTVSPost2010Prop47
 90
       50
102
RTVSPost2010PropOp47
 70
     1
102
RTVSPost2010Prop48
 90
       50
102
RTVSPost2010PropOp48
 70
     1
102
RTVSPost2010Prop49
280
     0
102
RTVSPost2010PropOp49
 70
     1
102
RTVSPost2010Prop50
 90
       50
102
RTVSPost2010PropOp50
 70
     1
102
RTVSPost2010Prop51ColorIndex
 90
      256
102
RTVSPost2010Prop51ColorRGB
 90
-16777216
102
RTVSPost2010PropOp51
 70
     0
102
RTVSPost2010Prop52
140
1.0
102
RTVSPost2010PropOp52
 70
     0
102
RTVSPost2010Prop53
 90
        2
102
RTVSPost2010PropOp53
 70
     1
102
RTVSPost2010Prop54
  1
strokes_ogs.tif
102
RTVSPost2010PropOp54
 70
     1
102
RTVSPost2010Prop55
280
     0
102
RTVSPost2010PropOp55
 70
     1
102
RTVSPost2010Prop56
140
1.0
102
RTVSPost2010PropOp56
 70
     1
102
RTVSPost2010Prop57
140
1.0
102
RTVSPost2010PropOp57
 70
     1
  0
XRECORD
  5
247
102
{ACAD_REACTORS
330
246
102
}
330
246
100
AcDbXrecord
280
     1
102
RTVSPost2010Prop28
280
     0
102
RTVSPost2010PropOp28
 70
     1
102
RTVSPost2010Prop29
280
     1
102
RTVSPost2010PropOp29
 70
     1
102
RTVSPost2010Prop30
280
     1
102
RTVSPost2010PropOp30
 70
     1
102
RTVSPost2010Prop31
280
     0
102
RTVSPost2010PropOp31
 70
     1
102
RTVSPost2010Prop32
280
     0
102
RTVSPost2010PropOp32
 70
     1
102
RTVSPost2010Prop33
280
     0
102
RTVSPost2010PropOp33
 70
     1
102
RTVSPost2010Prop34
280
     0
102
RTVSPost2010PropOp34
 70
     1
102
RTVSPost2010Prop35
280
     0
102
RTVSPost2010PropOp35
 70
     1
102
RTVSPost2010Prop36
280
     0
102
RTVSPost2010PropOp36
 70
     1
102
RTVSPost2010Prop37
 90
       50
102
RTVSPost2010PropOp37
 70
     1
102
RTVSPost2010Prop38
140
0.0
102
RTVSPost2010PropOp38
 70
     1
102
RTVSPost2010Prop39
140
1.0
102
RTVSPost2010PropOp39
 70
     1
102
RTVSPost2010Prop40
 90
        0
102
RTVSPost2010PropOp40
 70
     1
102
RTVSPost2010Prop41ColorIndex
 90
       18
102
RTVSPost2010Prop41ColorRGB
 90
        0
102
RTVSPost2010PropOp41
 70
     1
102
RTVSPost2010Prop42
 90
       50
102
RTVSPost2010PropOp42
 70
     1
102
RTVSPost2010Prop43
 90
        3
102
RTVSPost2010PropOp43
 70
     1
102
RTVSPost2010Prop44ColorIndex
 90
        5
102
RTVSPost2010Prop44ColorRGB
 90
      255
102
RTVSPost2010PropOp44
 70
     1
102
RTVSPost2010Prop45
280
     0
102
RTVSPost2010PropOp45
 70
     1
102
RTVSPost2010Prop46
 90
       50
102
RTVSPost2010PropOp46
 70
     1
102
RTVSPost2010Prop47
 90
       50
102
RTVSPost2010PropOp47
 70
     1
102
RTVSPost2010Prop48
 90
       50
102
RTVSPost2010PropOp48
 70
     1
102
RTVSPost2010Prop49
280
     0
102
RTVSPost2010PropOp49
 70
     1
102
RTVSPost2010Prop50
 90
       50
102
RTVSPost2010PropOp50
 70
     1
102
RTVSPost2010Prop51ColorIndex
 90
      256
102
RTVSPost2010Prop51ColorRGB
 90
-16777216
102
RTVSPost2010PropOp51
 70
     0
102
RTVSPost2010Prop52
140
1.0
102
RTVSPost2010PropOp52
 70
     0
102
RTVSPost2010Prop53
 90
        2
102
RTVSPost2010PropOp53
 70
     1
102
RTVSPost2010Prop54
  1
strokes_ogs.tif
102
RTVSPost2010PropOp54
 70
     1
102
RTVSPost2010Prop55
280
     0
102
RTVSPost2010PropOp55
 70
     1
102
RTVSPost2010Prop56
140
1.0
102
RTVSPost2010PropOp56
 70
     1
102
RTVSPost2010Prop57
140
1.0
102
RTVSPost2010PropOp57
 70
     1
  0
ENDSEC
  0
EOF
